a b c d e f g h i j k l m n o p q r s t u v w x y z 0-9

Mi Primer Dia Sin Ti

Enanitos Verdes

			
ENANITOS VERDES  -  MI PRIMER DIA SIN TI  -  Guitarra Líder

Intro

     |--5--5--5-xx-5--5-x--|-4--4--4-xx-4--4-x--|-2--2--2-xx-2--2-x-|-0--0--0-0-0-0-0-x--|
     |--5--5--5-xx-5--5-x--|-5--5--5-xx-5--5-x--|-3--3--3-xx-3--3-x-|-0--0--0-0-0-0-0-x--| 
     |--6--6--6-xx-6--6-x--|-6--6--6-xx-6--6-x--|-4--4--4-xx-4--4-x-|-1--1--1-1-1-1-1-x--|  X2
     |--7--7--7-xx-7--7-x--|-6--6--6-xx-6--6-x--|-4--4--4-xx-4--4-x-|-2--2--2-2-2-2-2-x--|
     |--7--7--7-xx-7--7-x--|-4--4--4-xx-4--4-x--|-2--2--2-xx-2--2-x-|-2--2--2-2-2-2-2-x--|
     |--5--5--5-xx-5--5-x--|-4--4--4-xx-4--4-x--|-2--2--2-xx-2--2-x-|-0--0--0-0-0-0-0-x--|
ohhhhh............yeaaaahhh..........uuuuhhhhhh........ eeeeehhhhhh

Verso 1

|--5-------5-----------4------4-----------------2-----2---------------0--------0--------------|
|--5---------5---------5--------5---------------3-------3-------------0----------0------------|
|--6-----------6-------6----------6-------------4---------4-----------1------------1----------|
|--7-------------7-----6------------6-----------4-----------4---------2--------------2--------|
|--7-------------------4------------------------2---------------------2-----------------------|
|--5-------------------4------------------------2---------------------0-----------------------| 
No estoy acostumbrado  mi primer día sin ti  que aun digo nosotros  cuando estoy pensando en ti

|--5-------5-------------4------4---------------2-------2----------------0--------0-----------|
|--5---------5-----------5--------5-------------3---------3--------------0----------0---------|
|--6-----------6---------6----------6-----------4-----------4------------1------------1-------|
|--7-------------7-------6------------6---------4-------------4----------2--------------2-----|
|--7---------------------4----------------------2------------------------2--------------------|
|--5---------------------4----------------------2------------------------0--------------------| 
Cuando termino el verano  todo parecía bien    ahora pienso en todo eso  que hablamos sin saber.

Puente 1:   Con Distorsión

Antes de empezar esta parte rasga con la uña la sexta cuerda
|--2--2---2--2--2---2--2------4--4---4--4--4--4---4---|
|--2--2---2--2--2---2--2------5--5---5--5--5--5---5---|
|--2--2---2--2--2---2--2------6--6---6--6--6--6---6---|
|--4--4---4--4--4---4--4------6--6---6--6--6--6---6---|
|--4--4---4--4--4---4--4------4--4---4--4--4--4---4---|
|--2--2---2--2--2---2--2------4--4---4--4--4--4---4---|
  Que pronto te marcharías    sin ninguna explicación,  

|---2--2---2--2--2--2---2-----2--2---2--2--2--2---2------0--0--0--0--0--0---0---|
|---3--3---3--3--3--3---3-----3--3---3--3--3--3---3------0--0--0--0--0--0---0---|
|---2--2---2--2--2--2---2-----4--4---4--4--4--4---4------1--1--1--1--1--1---1---|
|---0--0---0--0--0--0---0-----4--4---4--4--4--4---4------2--2--2--2--2--2---2---|
|---0--0---0--0--0--0---0-----2--2---2--2--2--2---2------2--2--2--2--2--2---2---|
|---x--x---x--x--x--x---x-----2--2---2--2--2--2---2------0--0--0--0--0--0---0---|
   Quizás te parezca fácil    que soporte este dolor,      uuuh!

Verso 2
|--5-------5-------------4------4--------------2-------2------------------0--------0-----------|
|--5---------5-----------5--------5------------3---------3----------------0----------0---------|
|--6-----------6---------6----------6----------4-----------4--------------1------------1-------|
|--7-------------7-------6------------6--------4-------------4------------2--------------2-----|
|--7---------------------4---------------------2--------------------------2--------------------|
|--5---------------------4---------------------2--------------------------0--------------------| 
Olvidaste algunas cosas  en tu rápido partir   y ahora son como tesoros  que conservo para mi

|--5-------5-------------4------4--------------2-------2------------------0--------0-----------|
|--5---------5-----------5--------5------------3---------3----------------0----------0---------|
|--6-----------6---------6----------6----------4-----------4--------------1------------1-------|
|--7-------------7-------6------------6--------4-------------4------------2--------------2-----|
|--7---------------------4---------------------2--------------------------2--------------------|
|--5---------------------4---------------------2--------------------------0--------------------| 
 Nunca me dijiste nada   acerca de tu pasión   seducir hasta ganarlo     y después decir adiós.

Puente 2:   Con Distorsión

Antes de empezar esta parte rasga con la uña la sexta cuerda
|--2--2---2--2--2---2--2------4--4---4--4--4--4---4---|
|--2--2---2--2--2---2--2------5--5---5--5--5--5---5---|
|--2--2---2--2--2---2--2------6--6---6--6--6--6---6---|
|--4--4---4--4--4---4--4------6--6---6--6--6--6---6---|
|--4--4---4--4--4---4--4------4--4---4--4--4--4---4---|
|--2--2---2--2--2---2--2------4--4---4--4--4--4---4---|
  Sabes que te marcharías     sin ninguna explicación,  

|---2--2---2--2--2--2---2-----2--2---2--2--2--2---2------0--0--0--0--0--0---0---|
|---3--3---3--3--3--3---3-----3--3---3--3--3--3---3------0--0--0--0--0--0---0---|
|---2--2---2--2--2--2---2-----4--4---4--4--4--4---4------1--1--1--1--1--1---1---|
|---0--0---0--0--0--0---0-----4--4---4--4--4--4---4------2--2--2--2--2--2---2---|
|---0--0---0--0--0--0---0-----2--2---2--2--2--2---2------2--2--2--2--2--2---2---|
|---x--x---x--x--x--x---x-----2--2---2--2--2--2---2------0--0--0--0--0--0---0---|
   Quizás te parezca fácil    que soporte este dolor,    que cargue con tu dolor

Coro:  Con Distorsión
|---------------------5-5---4--4---2---2--2-2--2--2-2----2-2---2--2---0---0--0--0--0-0--0--|
|---------------------5-5---5--5---2---2--2-2--2--2-2----3-3---3--3---0---0--0--0--0-0--0--|
|---------------------6-6---6--6---2---2--2-2--2--2-2----2-2---4--4---1---1--1--1--1-1--1--|
|---------------------7-7---6--6---4---4--4-4--4--4-4----0-0---4--4---2---2--2--2--2-2--2--|
|---------------------7-7---4--4---4---4--4-4--4--4-4----0-0---2--2---2---2--2--2--2-2--2--|
|---------------------5-5---4--4---2---2--2-2--2--2-2----x-x---2--2---0---0--0--0--0-0--0--|
  Porque este es mi primer día sin verte    este es mi primer día sin ti     y la habita.....

|----5-5---4--4---2---2--2--2--2--2-2---2-2-----2-2----2--2-----0---0--0--0--0-0--0--|
|----5-5---5--5---2---2--2--2--2--2-2---2-2-----3-3----3--3-----0---0--0--0--0-0--0--|
|----6-6---6--6---2---2--2--2--2--2-2---2-2-----2-2----4--4-----1---1--1--1--1-1--1--|
|----7-7---6--6---4---4--4--4--4--4-4---4-4-----0-0----4--4-----2---2--2--2--2-2--2--|
|----7-7---4--4---4---4--4--4--4--4-4---4-4-----0-0----2--2-----2---2--2--2--2-2--2--|
|----5-5---4--4---2---2--2--2--2--2-2---2-2-----x-x----2--2-----0---0--0--0--0-0--0--|
...cion se me hace gigante    me siento tan pequeño si no estas aquí, no lo puedo entender....

Esta parte sin Distorsión

     |--5--5--5-xx-5--5-x--|-4--4--4-xx-4--4-x--|-2--2--2-xx-2--2-x-|-0--0--0-0-0-0-0-x--|
     |--5--5--5-xx-5--5-x--|-5--5--5-xx-5--5-x--|-3--3--3-xx-3--3-x-|-0--0--0-0-0-0-0-x--| 
     |--6--6--6-xx-6--6-x--|-6--6--6-xx-6--6-x--|-4--4--4-xx-4--4-x-|-1--1--1-1-1-1-1-x--|  X2
     |--7--7--7-xx-7--7-x--|-6--6--6-xx-6--6-x--|-4--4--4-xx-4--4-x-|-2--2--2-2-2-2-2-x--|
     |--7--7--7-xx-7--7-x--|-4--4--4-xx-4--4-x--|-2--2--2-xx-2--2-x-|-2--2--2-2-2-2-2-x--|
     |--5--5--5-xx-5--5-x--|-4--4--4-xx-4--4-x--|-2--2--2-xx-2--2-x-|-0--0--0-0-0-0-0-x--|
eeehhhhhh............yeaaaahhh..........uuuuhhhhhh........ eeeeehhhhhh


Verso 3
|--5-------5---------------4------4-------------2-------2-----------------0--------0-----------|
|--5---------5-------------5--------5-----------3---------3---------------0----------0---------|
|--6-----------6-----------6----------6---------4-----------4-------------1------------1-------|
|--7-------------7---------6------------6-------4-------------4-----------2--------------2-----|
|--7-----------------------4--------------------2-------------------------2--------------------|
|--5-----------------------4--------------------2-------------------------0--------------------| 
Cuando termino el verano   todo parecía bien   pero no me daba cuenta    yo confiaba sin saber.

|--5-------5-------------4------4--------------2-------2------------------0--------0-----------|
|--5---------5-----------5--------5------------3---------3----------------0----------0---------|
|--6-----------6---------6----------6----------4-----------4--------------1------------1-------|
|--7-------------7-------6------------6--------4-------------4------------2--------------2-----|
|--7---------------------4---------------------2--------------------------2--------------------|
|--5---------------------4---------------------2--------------------------0--------------------| 
 Nunca me dijiste nada   acerca de tu pasión   seducir hasta ganarlo     y después decir adiós.


Puente 2:   Con Distorsión

Antes de empezar esta parte rasga con la uña la sexta cuerda
|--2--2---2--2--2---2--2------4--4---4--4--4--4---4---|
|--2--2---2--2--2---2--2------5--5---5--5--5--5---5---|
|--2--2---2--2--2---2--2------6--6---6--6--6--6---6---|
|--4--4---4--4--4---4--4------6--6---6--6--6--6---6---|
|--4--4---4--4--4---4--4------4--4---4--4--4--4---4---|
|--2--2---2--2--2---2--2------4--4---4--4--4--4---4---|
  Sabes que te marcharías     sin ninguna explicación,  

|---2--2---2--2--2--2---2-----2--2---2--2--2--2---2------0--0--0--0--0--0---0---|
|---3--3---3--3--3--3---3-----3--3---3--3--3--3---3------0--0--0--0--0--0---0---|
|---2--2---2--2--2--2---2-----4--4---4--4--4--4---4------1--1--1--1--1--1---1---|
|---0--0---0--0--0--0---0-----4--4---4--4--4--4---4------2--2--2--2--2--2---2---|
|---0--0---0--0--0--0---0-----2--2---2--2--2--2---2------2--2--2--2--2--2---2---|
|---x--x---x--x--x--x---x-----2--2---2--2--2--2---2------0--0--0--0--0--0---0---|
   Quizás te parezca fácil    que soporte este dolor,    que cargue con tu dolor


Coro:  Con Distorsión
|---------------------5-5---4--4---2---2--2-2--2--2-2----2-2---2--2---0---0--0--0--0-0--0--|
|---------------------5-5---5--5---2---2--2-2--2--2-2----3-3---3--3---0---0--0--0--0-0--0--|
|---------------------6-6---6--6---2---2--2-2--2--2-2----2-2---4--4---1---1--1--1--1-1--1--|
|---------------------7-7---6--6---4---4--4-4--4--4-4----0-0---4--4---2---2--2--2--2-2--2--|
|---------------------7-7---4--4---4---4--4-4--4--4-4----0-0---2--2---2---2--2--2--2-2--2--|
|---------------------5-5---4--4---2---2--2-2--2--2-2----x-x---2--2---0---0--0--0--0-0--0--|
  Porque este es mi primer día sin verte    este es mi primer día sin ti     y la habita.....

|----5-5---4--4---2---2--2--2--2--2-2---2-2-----2-2----2--2-----0---0--0--0--0-0--0--|
|----5-5---5--5---2---2--2--2--2--2-2---2-2-----3-3----3--3-----0---0--0--0--0-0--0--|
|----6-6---6--6---2---2--2--2--2--2-2---2-2-----2-2----4--4-----1---1--1--1--1-1--1--|
|----7-7---6--6---4---4--4--4--4--4-4---4-4-----0-0----4--4-----2---2--2--2--2-2--2--|
|----7-7---4--4---4---4--4--4--4--4-4---4-4-----0-0----2--2-----2---2--2--2--2-2--2--|
|----5-5---4--4---2---2--2--2--2--2-2---2-2-----x-x----2--2-----0---0--0--0--0-0--0--|
...cion se me hace gigante    me siento tan pequeño si no estas aquí

|---------------------5-5---4--4---2---2--2-2--2--2-2----2-2---2--2---0---0--0--0--0-0--0--|
|---------------------5-5---5--5---2---2--2-2--2--2-2----3-3---3--3---0---0--0--0--0-0--0--|
|---------------------6-6---6--6---2---2--2-2--2--2-2----2-2---4--4---1---1--1--1--1-1--1--|
|---------------------7-7---6--6---4---4--4-4--4--4-4----0-0---4--4---2---2--2--2--2-2--2--|
|---------------------7-7---4--4---4---4--4-4--4--4-4----0-0---2--2---2---2--2--2--2-2--2--|
|---------------------5-5---4--4---2---2--2-2--2--2-2----x-x---2--2---0---0--0--0--0-0--0--|
  Porque este es mi primer día sin verte    este es mi primer día sin ti     y la habita.....


|----5-5---4--4---2---2--2--2--2--2-2---2-2-----2-2----2--2-----0---0--0--0--0-0--0--|
|----5-5---5--5---2---2--2--2--2--2-2---2-2-----3-3----3--3-----0---0--0--0--0-0--0--|
|----6-6---6--6---2---2--2--2--2--2-2---2-2-----2-2----4--4-----1---1--1--1--1-1--1--|
|----7-7---6--6---4---4--4--4--4--4-4---4-4-----0-0----4--4-----2---2--2--2--2-2--2--|
|----7-7---4--4---4---4--4--4--4--4-4---4-4-----0-0----2--2-----2---2--2--2--2-2--2--|
|----5-5---4--4---2---2--2--2--2--2-2---2-2-----x-x----2--2-----0---0--0--0--0-0--0--|
...cion se me hace gigante    me siento tan pequeño si no estas aquí, no lo puedo entender.......

Esta parte sin Distorsión

     |--5--5--5-xx-5--5-x--|-4--4--4-xx-4--4-x--|-2--2--2-xx-2--2-x-|-0--0--0-0-0-0-0-x--|
     |--5--5--5-xx-5--5-x--|-5--5--5-xx-5--5-x--|-3--3--3-xx-3--3-x-|-0--0--0-0-0-0-0-x--| 
     |--6--6--6-xx-6--6-x--|-6--6--6-xx-6--6-x--|-4--4--4-xx-4--4-x-|-1--1--1-1-1-1-1-x--|  X2
     |--7--7--7-xx-7--7-x--|-6--6--6-xx-6--6-x--|-4--4--4-xx-4--4-x-|-2--2--2-2-2-2-2-x--|
     |--7--7--7-xx-7--7-x--|-4--4--4-xx-4--4-x--|-2--2--2-xx-2--2-x-|-2--2--2-2-2-2-2-x--|
     |--5--5--5-xx-5--5-x--|-4--4--4-xx-4--4-x--|-2--2--2-xx-2--2-x-|-0--0--0-0-0-0-0-x--|
eeehhhhhh............yeaaaahhh..........uuuuhhhhhh........ eeeeehhhhhh









ENANITOS VERDES  -  MI PRIMER DIA SIN TI  -  Guitarra Rítmica


ACORDES

   A5 C#m  Bm  E  F#m  D
|--5---4---2-------2---2---|
|--5---5---3-------2---3---|
|--6---6---4---1---2---2---|
|--7---6---4---2---4-------|
|--7---4---2---2---4-------|
|--5---4---2-------2-------|


Intro:   A   C#m  Bm  E      X2

Verso 1

    A 
No estoy acostumbrado
         C#m
es mi primer día sin ti
     Bm
que aun digo nosotros 
          E
cuando estoy pensando en ti.

        A 
Cuando termino el verano
      C#m
todo parecía bien
       Bm
ahora pienso en todo eso
        E
que hablamos sin saber.

Puente 1

          F#m         
Que pronto te marcharías
        C#m
sin ninguna explicación,
        D
quizás te parezca fácil
       Bm                E
que soporte este dolor, uuuh!

Verso 2

       A 
Olvidaste algunas cosas
    C#m
en tu rápido partir
        Bm
y ahora son como tesoros
           E
que conservo para mi

       A
Nunca me dijiste nada
     C#m
acerca de tu pasión
      Bm
seducir hasta ganarlo
       E
y después decir adiós.

Puente 2

          F#m         
Sabes que te marcharías
        C#m
sin ninguna explicación,
        D
quizás te parezca fácil
       Bm
que soporte este dolor


    E
que cargue con tu dolor

Coro
                    A   C#m    F#m
Porque este es mi primer día sin verte
             D   Bm     E
este es mi primer día sin ti
             A       C#m   F#m
y la habitación se me hace gigante
                  D     Bm        E
me siento tan pequeño si no estas aquí,
E
no lo puedo entender...
    A         C#m     Bm     E
ehhhh...yeaahhh....ouuuhhh         X2


Verso 3

          A
Cuando termino el verano
      C#m
todo parecía bien 
     Bm
pero no me daba cuenta
      E
yo confiaba sin saber

       A
Nunca me dijiste nada
     C#m
acerca de tu pasión
      Bm
seducir hasta ganarlo
       E
y después decir adiós.

Puente 2

          F#m         
Sabes que te marcharías
        C#m
sin ninguna explicación,
        D
quizás te parezca fácil
       Bm
que soporte este dolor
    E
que cargue con tu dolor


Coro
                    A   C#m    F#m
Porque este es mi primer día sin verte
             D   Bm     E
este es mi primer día sin ti
             A       C#m   F#m
y la habitación se me hace gigante
                  D     Bm        E
me siento tan pequeño si no estas aquí,

                    A   C#m    F#m
Porque este es mi primer día sin verte
             D   Bm     E
este es mi primer día sin ti
             A       C#m   F#m
y la habitación se me hace gigante
                  D     Bm        E
me siento tan pequeño si no estas aquí,
E
no lo puedo entender...
    A         C#m     Bm     E
ehhhh...yeaahhh....ouuuhhh 




CARLOS PIÑEROS 
Bogota-Bucaramanga, Colombia


Aerosmith Lives
Guns N Roses Rules
Nirvana Forever

Fuente original ATAME [www.atame.org]
Colaborador original: Carlos Piñeros [carlos_pineros@budweiser.com]

Fuente: tusacordes.com