a b c d e f g h i j k l m n o p q r s t u v w x y z 0-9

Mi Primer Dia Sin Ti

Enanitos Verdes

			
aqui les va la tablatura de mi primer dia sin ti
  gentileza squallmaster:

  intro:

  e--5--4--2--0---
  B--5--5--2--0---
  G--6--6--2--1---
  D--7--6--4--2---
  A--7--4--4--2---
  E--5-----2--0---

  en los versos:

  e--5-5-------4-4-------2-2-------0-0---------
  B--5---5-----5---5-----2---2-----0---0-------
  G--6-----6---6-----6---2-----2---1-----1-----
  D--7-------7-6-------6-4-------4-2-------2---
  A--7---------4---------4---------2-----------
  E--5-------------------2---------0-----------

  si tienes guitarra electrica acciona la distorcion
  y hace estos riffs en la partede pronto te 
  marcharias sin ninguna esplicacion.....

  e-----------
  B-----------
  G----6-7-9--
  D--4-6-7-9--
  A--4-4-5-7--
  E--2--------

  estos son los riffs del coro:si tienes guitarra electrica
  haslo con distorcion

  e----------------
  B----------------
  G----6---7---9---
  D--7-6-4-7-7-9---
  A--7-4-4-5-7-7---
  E--5---2---5-----

  en la partenunca me dijiste nada...

  e--5-5-------4-4-------2-2-------0-0---------
  B--5---5-----5---5-----3---3-----0---0-------
  G--6-----6---6-----6---2-----2---1-----1-----
  D--7-------7-6-------6-0-------0-2-------2---
  A--7---------4-------------------2-----------
  E--5-----------------------------0-----------

  bueno ojala que les sirba squallmasterjose verdejo

Fuente original ATAME [www.atame.org]
Colaborador original: jose verdejo [squall@hotmail.com]

Fuente: tusacordes.com