a b c d e f g h i j k l m n o p q r s t u v w x y z 0-9

Mi Primer Dia Sin Ti

Enanitos Verdes

			
INTRO:   ohhhhh uhh Ho
A                 C#m               Bm                E
e|5--5--5-xx-5--5-x|4--4--4-xx-4--4-x|2--2--2-xx-2--2-x|0--0--0-0-0-0-0-x|
B|5--5--5-xx-5--5-x|5--5--5-xx-5--5-x|3--3--3-xx-3--3-x|0--0--0-0-0-0-0-x|
G|6--6--6-xx-6--6-x|6--6--6-xx-6--6-x|4--4--4-xx-4--4-x|1--1--1-1-1-1-1-x|
D|7--7--7-xx-7--7-x|6--6--6-xx-6--6-x|4--4--4-xx-4--4-x|2--2--2-2-2-2-2-x|
A|7--7--7-xx-7--7-x|4--4--4-xx-4--4-x|2--2--2-xx-2--2-x|2--2--2-2-2-2-2-x|
E|5--5--5-xx-5--5-x|4--4--4-xx-4--4-x|2--2--2-xx-2--2-x|0--0--0-0-0-0-0-x|
       A           C#m         Bm          E            
e|-5-5-------|-4-4-------|-2-2-------|-0-0-------|
B|-5---5-----|-5---5-----|-3---3-----|-0---0-----|
G|-6-----6---|-6-----6---|-4-----4---|-1-----1---|
D|-7-------7-|-6-------6-|-4-------4-|-2-------2-|
A|-7---------|-4---------|-2---------|-2---------|
E|-5---------|-4---------|-2---------|-0---------| 

    A
  No estoy acostumbrado
        C#m
  es mi primer dia sin ti
      Bm
  que aun digo nosotros
         E 
  cuando estoy pensando en ti.

         A
  Cuando termino el verano
       C#m
  todo parecia bien
        Bm
  ahora pienso en todo eso
      E
  que hablamos sin saber.
        F#m         C#m             D             Bm             E                 
e|2-2-2-2-2-2-2|4-4-4-4-4-4-4|2-2-2-2-2-2-2|2-2-2-2-2-2-2|0-0-0-0-0-0-0|
B|2-2-2-2-2-2-2|5-5-5-5-5-5-5|3-3-3-3-3-3-3|3-3-3-3-3-3-3|0-0-0-0-0-0-0|
G|2-2-2-2-2-2-2|6-6-6-6-6-6-6|2-2-2-2-2-2-2|4-4-4-4-4-4-4|1-1-1-1-1-1-1|
D|4-4-4-4-4-4-4|6-6-6-6-6-6-6|0-0-0-0-0-0-0|4-4-4-4-4-4-4|2-2-2-2-2-2-2|
A|4-4-4-4-4-4-4|4-4-4-4-4-4-4|0-0-0-0-0-0-0|2-2-2-2-2-2-2|2-2-2-2-2-2-2|
E|2-2-2-2-2-2-2|4-4-4-4-4-4-4|x-x-x-x-x-x-x|2-2-2-2-2-2-2|0-0-0-0-0-0-0|
 Antes de empesar esta parte rasga con la uña la sexta cuerda
                  
      F#m
  Que pronto te marcharias
     C#m
  sin ninguna explicacion,
         D
  quizas te parezca facil
       Bm          
  que soporte este dolor, 
  E                  
  uuuh!
       A           C#m         Bm          E            
e|-5-5-------|-4-4-------|-2-2-------|-0-0-------|
B|-5---5-----|-5---5-----|-3---3-----|-0---0-----|
G|-6-----6---|-6-----6---|-4-----4---|-1-----1---|
D|-7-------7-|-6-------6-|-4-------4-|-2-------2-|
A|-7---------|-4---------|-2---------|-2---------|
E|-5---------|-4---------|-2---------|-0---------|
             
            A     
  Olvidaste algunas cosas
      C#m                   
  en tu rapido partir 
           Bm           
  y ahora son como tesoros
       E                
  que conservo para mi
                  
         A                
  Nunca me dijiste nada
        C#m              
  acerca de tu pasion
       Bm                   
  seducir hasta ganarlo
        E                    
  y despues decir adios.
        F#m           C#m           D             Bm            E                
e|2-2-2-2-2-2-2|4-4-4-4-4-4-4|2-2-2-2-2-2-2|2-2-2-2-2-2-2|0-0-0-0-0-0-0|
B|2-2-2-2-2-2-2|5-5-5-5-5-5-5|3-3-3-3-3-3-3|3-3-3-3-3-3-3|0-0-0-0-0-0-0|
G|2-2-2-2-2-2-2|6-6-6-6-6-6-6|2-2-2-2-2-2-2|4-4-4-4-4-4-4|1-1-1-1-1-1-1|
D|4-4-4-4-4-4-4|6-6-6-6-6-6-6|0-0-0-0-0-0-0|4-4-4-4-4-4-4|2-2-2-2-2-2-2|
A|4-4-4-4-4-4-4|4-4-4-4-4-4-4|0-0-0-0-0-0-0|2-2-2-2-2-2-2|2-2-2-2-2-2-2|
E|2-2-2-2-2-2-2|4-4-4-4-4-4-4|x-x-x-x-x-x-x|2-2-2-2-2-2-2|0-0-0-0-0-0-0|
 Antes de empesar esta parte rasga con la uña la sexta cuerda

         F#m             
  Sabes que te marcharias
         C#m                   
  sin ninguna explicacion
          D               
  quizas te parezca facil
        Bm                   
  que soporte este dolor
         E                 
  que carge con tu dolor

   A     C#m        F#m               D     Bm          E                   
e|-5-5-|-4-4-|2--2-2-2-2-2-2-2|----|-2-2-|-2-2-|0--0-0-0-0-0-0-0|
B|-5-5-|-5-5-|2--2-2-2-2-2-2-2|----|-3-3-|-3-3-|0--0-0-0-0-0-0-0|
G|-6-6-|-6-6-|2--2-2-2-2-2-2-2|----|-2-2-|-4-4-|1--1-1-1-1-1-1-1|
D|-7-7-|-6-6-|4--4-4-4-4-4-4-4|----|-0-0-|-4-4-|2--2-2-2-2-2-2-2|
A|-7-7-|-4-4-|4--4-4-4-4-4-4-4|----|-0-0-|-2-2-|2--2-2-2-2-2-2-2|
A|-5-5-|-4-4-|2--2-2-2-2-2-2-2|----|-x-x-|-2-2-|0--0-0-0-0-0-0-0|

                      A      C#m     F#m            
  Porque este es mi primer dia sin verte
                D     Bm     E                
  este es mi primer dia sin ti
                A     C#m        F#m             
  y la habitacion se me hace gigante
                    D       Bm         E        
  me siento tan pequeño si no estas aqui, no lo puedo entender.......

  ehhhh ihh ehhhhhh...............
e|5--5--5-xx-5--5-x|4--4--4-xx-4--4-x|2--2--2-xx-2--2-x|0--0--0-0-0-0-0-x|
B|5--5--5-xx-5--5-x|5--5--5-xx-5--5-x|3--3--3-xx-3--3-x|0--0--0-0-0-0-0-x|
G|6--6--6-xx-6--6-x|6--6--6-xx-6--6-x|4--4--4-xx-4--4-x|1--1--1-1-1-1-1-x|
D|7--7--7-xx-7--7-x|6--6--6-xx-6--6-x|4--4--4-xx-4--4-x|2--2--2-2-2-2-2-x|
A|7--7--7-xx-7--7-x|4--4--4-xx-4--4-x|2--2--2-xx-2--2-x|2--2--2-2-2-2-2-x|
E|5--5--5-xx-5--5-x|4--4--4-xx-4--4-x|2--2--2-xx-2--2-x|0--0--0-0-0-0-0-x|
       A          C#m          Bm         E    
e|-5-5-------|-4-4-------|-2-2-------|-0-0-------|
B|-5---5-----|-5---5-----|-3---3-----|-0---0-----|
G|-6-----6---|-6-----6---|-4-----4---|-1-----1---|
D|-7-------7-|-6-------6-|-4-------4-|-2-------2-|
A|-7---------|-4---------|-2---------|-2---------|
E|-5---------|-4---------|-2---------|-0---------| 

         A
  Cuando termino el verano
       C#m2
  todo parecia bien
        Bm
  pero no me daba cuenta
      E
  yo confiaba sin saber.

         A                 
  Nunca me dijiste nada
        C#m              
  acerca de tu pasion
       Bm                   
  seducir hasta ganarlo
        E                    
  y despues decir adios.
        F#m          C#m            D             Bm            E                
e|2-2-2-2-2-2-2|4-4-4-4-4-4-4|2-2-2-2-2-2-2|2-2-2-2-2-2-2|0-0-0-0-0-0-0|
B|2-2-2-2-2-2-2|5-5-5-5-5-5-5|3-3-3-3-3-3-3|3-3-3-3-3-3-3|0-0-0-0-0-0-0|
G|2-2-2-2-2-2-2|6-6-6-6-6-6-6|2-2-2-2-2-2-2|4-4-4-4-4-4-4|1-1-1-1-1-1-1|
D|4-4-4-4-4-4-4|6-6-6-6-6-6-6|0-0-0-0-0-0-0|4-4-4-4-4-4-4|2-2-2-2-2-2-2|
A|4-4-4-4-4-4-4|4-4-4-4-4-4-4|0-0-0-0-0-0-0|2-2-2-2-2-2-2|2-2-2-2-2-2-2|
E|2-2-2-2-2-2-2|4-4-4-4-4-4-4|x-x-x-x-x-x-x|2-2-2-2-2-2-2|0-0-0-0-0-0-0|
 Antes de empesar esta parte rasga con la uña la sexta cuerda

         F#m             
  Sabes que te marcharias
         C#m                   
  sin ninguna explicacion
          D               
  quizas te parezca facil
        Bm                   
  que soporte este dolor
         E                 
  que carge con tu dolor         
   A     C#m        F#m               D     Bm          E                   
e|-5-5-|-4-4-|2--2-2-2-2-2-2-2|----|-2-2-|-2-2-|0--0-0-0-0-0-0-0|
B|-5-5-|-5-5-|2--2-2-2-2-2-2-2|----|-3-3-|-3-3-|0--0-0-0-0-0-0-0|
G|-6-6-|-6-6-|2--2-2-2-2-2-2-2|----|-2-2-|-4-4-|1--1-1-1-1-1-1-1|
D|-7-7-|-6-6-|4--4-4-4-4-4-4-4|----|-0-0-|-4-4-|2--2-2-2-2-2-2-2|
A|-7-7-|-4-4-|4--4-4-4-4-4-4-4|----|-0-0-|-2-2-|2--2-2-2-2-2-2-2|
A|-5-5-|-4-4-|2--2-2-2-2-2-2-2|----|-x-x-|-2-2-|0--0-0-0-0-0-0-0|

                      A      C#m     F#m            
  Porque este es mi primer dia sin verte
                D     Bm     E                
  este es mi primer dia sin ti
                A     C#m        F#m             
  y la habitacion se me hace gigante
                    D       Bm         E        
  me siento tan pequeño si no estas aqui, no lo puedo entender.......

  ehhhh ihh ehhhhhh...............
e|5--5--5-xx-5--5-x|4--4--4-xx-4--4-x|2--2--2-xx-2--2-x|0--0--0-0-0-0-0-x|
B|5--5--5-xx-5--5-x|5--5--5-xx-5--5-x|3--3--3-xx-3--3-x|0--0--0-0-0-0-0-x|
G|6--6--6-xx-6--6-x|6--6--6-xx-6--6-x|4--4--4-xx-4--4-x|1--1--1-1-1-1-1-x|
D|7--7--7-xx-7--7-x|6--6--6-xx-6--6-x|4--4--4-xx-4--4-x|2--2--2-2-2-2-2-x|
A|7--7--7-xx-7--7-x|4--4--4-xx-4--4-x|2--2--2-xx-2--2-x|2--2--2-2-2-2-2-x|
E|5--5--5-xx-5--5-x|4--4--4-xx-4--4-x|2--2--2-xx-2--2-x|0--0--0-0-0-0-0-x|

Fuente original ATAME [www.atame.org]
Colaborador original: Juan Carlos Fernandez [chescojc@hotmail.com]

Fuente: tusacordes.com