a b c d e f g h i j k l m n o p q r s t u v w x y z 0-9

Mi Primer Dia Sin Ti

Enanitos Verdes

			
Mi primer dia sin ti- de las mejores canciones de Enanitos Verdes
por Largallagher

Este es mi primer tab de bajo, y aunque no soy bajista suena muy 
parecido, y si no me creen traguenselo por que asi es.


Intro:

uoooohooo.....

G----------------------------------|
D----------------------------------|    
A----------4--4-4--2--2-2--7--7-7--| x2
E--5--5-5--------------------------|

Versos 1 y 2:

G----------------------------------|----------------------------------|
D----------------------------------|----------------------------------|
A----------4--4-4--2--2-2--7--7-7--|----------4--4-4--2--2-2--7--7--7-|
E--5--5-5--------------------------|--5--5-5--------------------------|

Precoro:

G------------------------------------------|
D------------------------------------------|
A----------4--4-4--5--5-5--2--2-2----------|
E--2--2-2--------------------------0--0-0--|

Versos 3 y 4:

G----------------------------------|-------------------------------------|
D----------------------------------|-------------------------------------|
A----------4--4-4--2--2-2--7--7-7--|--12--12-12/4--4-4-3-2--2-2--7--7--7-|
E--5--5-5--------------------------|-------------------------------------|

Precoro 2:

G-------------------------------------------------|
D-------------------------------------------------|
A----------4--4-4--5--5-5--2--2-2-----------------|
E--2--2-2--------------------------0--0-0--0--0-0-|

Coro:

G---------------------------------------|
D---------------------------------------|
A-------4--4----------5--5-2--2---------| x2
E--5--5-------2--2-2------------0--0-0--|

Intro:

G----------------------------------------------------------------------------------|
D----------------------------------------------------------------------------------|
A--12--12-12/4--4-4-3-2--2-2--7--7-7--12--12-12/16--16-16-15-14--14-14-------------|
E-----------------------------------------------------------------------12--12-12--|

Versos 5 y 6:

Puedes tocarlos como los 1 y 2 o como los 3 y 4, pues este verso
es muy confuso y no lo pude sacar...pero si tu tocas los versos
sin la cancion se oiran bien.

Precoro:

El mismo que el precoro 2

Coro:

El mismo que el coro, solo que en esta vez lo haces 4 veces.

Final:

G-----------------------------------------------------------------------------------|
D-----------------------------------------------------------------------------------|
A--12--12-12/4--4-4-3-2--2-2--7--7-7--12--12-12/16--16-16-15-14--14-14--------------|
E-----------------------------------------------------------------------12--12-12/5-|

Dudas, correciones, comentarios, mandenme un mail.

Fuente original ATAME [www.atame.org]
Colaborador original: Omar Dario Manzano Sanchez [coty_bobe@hotmail.com]

Fuente: tusacordes.com