a b c d e f g h i j k l m n o p q r s t u v w x y z 0-9

Mi Primer Dia Sin Ti

Enanitos Verdes

			
Correccion a la version de Erick Llamas llamas2099@latinmail.com

Uo....  De esta forma suena mejor que ir directo a "E"

G------------------------------------------------------
D---------------------------------------22-222-2-------
A--------------44-444-44-4--22-222-22-2----------------
E--5--555-55-5-----------------------------------00-00-

ahora pienso en todo eso que hablamos sin saber

Que pronto te marcharías......


G------------------------------------------------------------
D----------------------------------------------------2-22222-
A-------------44-4444--44--5-555--5555-5---22-222--2---------
E-22-222-22-2------------------------------------------------

coro

G--------------------------------------------------------
D------------------------------------------22-2-222222---
A----------44-4----------------55-5--22-2----------------
E----55-5--------22-2-222-222----------------------------

Durante el solo podes tocar asi siguiendo el ritmo 
El slide suena bastante bien.

G--------------------------------------------------------------
D--------------14----------------------------------------------
A--------16-14-----al final, te deslizas14/16----------------
E----17--------------------------------------------------------

Fuente original ATAME [www.atame.org]
Colaborador original: Allan [Allmatch@Hotmail.com]

Fuente: tusacordes.com