a b c d e f g h i j k l m n o p q r s t u v w x y z 0-9

Metro Balderas

Enanitos Verdes

			
Este es el solo de metro balderas de tracción acustica de
  enanos tambien esta sencillo y bueno ojala la disfruten
  quejas o sujerencias escribanme 



  |-----------------------------5-----|
  |---------------------8-8-7-5-------|
  |---------6-7-6-9---------------5---|
  |-7-5/7-7---------7-7-------------7-|
  |-----------------------------------|
  |-----------------------------------|

  |----------------------------5------|
  |--------------------8-8-7-5--------|
  |--------6-7-6-9---------------5----|
  |--5/7-7---------7-7-------------7--|
  |-----------------------------------|
  |-----------------------------------|

  |----------------------------5------|
  |--------------------8-8-7-5--------|
  |--------6-7-6-9---------------5----|
  |--5/7-7---------7-7-------------7--|
  |-----------------------------------|
  |-----------------------------------|

  |----------------------------5------|
  |--------------------8-8-7-5--------|
  |--------6-7-6-9--------------------|
  |--5/7-7---------7-7----------------|
  |-----------------------------------|
  |-----------------------------------|

  |---------5---------5---------5-----|
  |-8-8-7-5---8-8-7-5---8-8-7-5-------|
  |-----------------------------------|
  |-----------------------------------|
  |-----------------------------------|
  |-----------------------------------|

  |-----------------------------------------------|
  |-----------------------------------------------|
  |-5---5---5---5---5---------7^-7^-7^-7^-7---7---|
  |---7---7---7---7---7---------------------8---8-|
  |-----------------------------------------------|
  |-------------------5---------------------------|

Fuente original ATAME [www.atame.org]
Colaborador original: Adryan Sanchez Chio [caifan_3x@hotmail.com]

Fuente: tusacordes.com