a b c d e f g h i j k l m n o p q r s t u v w x y z 0-9

Mejor No Hablemos De Amor

Enanitos Verdes

			
G||------|------|------|------||---------------------------|
D||------|------|------|------||*--------------------------|
A||------|------|------|------||*--4----4------------------|
E||------|------|------|------||-----------5-5--5-5--5-5---|



--------------------------|--------------------------|
--------------------------|--------------------------|
--4----4------------------|--4----4------------------|
----------5-5--5-5--5-5---|----------5-5--5-5--5-5-5/|



---------------------------||----------------------|----------------------|
--------------------------*||----------------------|----------------------|
--------------------------*||--4--4-----0---0------|--4--4-----0---0------|
--7----7--7-7--7-7--7-7----||----------------------|----------------------|



----------------------|----------------------|----------------------|
----------------------|----------------------|----------------------|
--4--4-----0---0------|--2--2-----2---2------|--4--4-----0---0------|
----------------------|----------------------|----------------------|



----------------------|----------------------|----------------------|
----------------------|----------------------|----------------------|
--4--4-----0---0------|--4--4-----0---0------|--2--2-----2---2------|
----------------------|----------------------|----------------------|



--------------------------||---------------------------|
--------------------------||*--------------------------|
--2--2--2--2--2--2--2--2--||*--4----4------------------|
--------------------------||-----------5-5--5-5--5-5---|



--------------------------|--------------------------|
--------------------------|--------------------------|
--4----4------------------|--4----4------------------|
----------5-5--5-5--5-5---|----------5-5--5-5--5-5-5/|



---------------------------||----------------------|----------------------|
--------------------------*||----------------------|----------------------|
--------------------------*||--4--4-----0---0------|--4--4-----0---0------|
--7----7--7-7--7-7--7-7----||----------------------|----------------------|



----------------------|----------------------|----------------------|
----------------------|----------------------|----------------------|
--4--4-----0---0------|--2--2-----2---2------|--4--4-----0---0------|
----------------------|----------------------|----------------------|



----------------------|----------------------|----------------------|
----------------------|----------------------|----------------------|
--4--4-----0---0------|--4--4-----0---0------|--2--2-----2---2------|
----------------------|----------------------|----------------------|



--------------------------|--------------------------|
--------------------------|--------------------------|
--2--2--2--2--2--2--2--2--|--4----4------------------|
--------------------------|----------5-5--5-5--5-5---|



--------------------------|--------------------------|
--------------------------|--------------------------|
--4----4------------------|--4----4------------------|
----------5-5--5-5--5-5---|----------5-5--5-5--5-5-5/|



--------------------------|--------------------------|
--------------------------|--------------------------|
--------------------------|--4----4------------------|
--7----7--7-7--7-7--7-7---|----------5-5--5-5--5-5---|



--------------------------|--------------------------|
--------------------------|--------------------------|
--4----4------------------|--4----4------------------|
----------5-5--5-5--5-5---|----------5-5--5-5--5-5-5/|



--------------------------|--------------------------|
--------------------------|--------------------------|
--------------------------|--------------------------|
--7----7--7-7--7-7--7-7---|--2----2--2-2--2-2--2-2---|



--------------------------|--------------------------|
--------------------------|--------------------------|
--0----0--0-0--0-0--0-0---|--------------------------|
--------------------------|--0----0--0-0--0-0--0-0---|



--------------------------|--------------------------|
--------------------------|--------------------------|
--2----2--2-2--2-2--2-2---|--------------------------|
--------------------------|--2----2--2-2--2-2--2-2---|



--------------------------|--------------------------|
--------------------------|--------------------------|
--0----0--0-0--0-0--0-0---|--------------------------|
--------------------------|--0----0--0-0--0-0--0-0---|



--------------------------||---------------------------|
--------------------------||*--------------------------|
--2----2--2-2--2-2--2-2---||*--4----4------------------|
--------------------------||-----------5-5--5-5--5-5---|



--------------------------|--------------------------|
--------------------------|--------------------------|
--4----4------------------|--4----4------------------|
----------5-5--5-5--5-5---|----------5-5--5-5--5-5-5/|


                           2x
---------------------------||--------------------------|
--------------------------*||--------------------------|
--------------------------*||--------------------------|
--7----7--7-7--7-7--7-7----||--2----2--2-2--2-2--2-2---|



--------------------------|--------------------------|
--------------------------|--------------------------|
--0----0--0-0--0-0--0-0---|--------------------------|
--------------------------|--0----0--0-0--0-0--0-0---|



--------------------------|--------------------------|
--------------------------|--------------------------|
--2----2--2-2--2-2--2-2---|--------------------------|
--------------------------|--2----2--2-2--2-2--2-2---|



--------------------------|--------------------------|
--------------------------|--------------------------|
--0----0--0-0--0-0--0-0---|--------------------------|
--------------------------|--0----0--0-0--0-0--0-0---|



--------------------------|--------------------------|
--------------------------|--------------------------|
--2----2--2-2--2-2--2-2---|--4----4------------------|
--------------------------|----------5-5--5-5--5-5---|



--------------------------|--------------------------|
--------------------------|--------------------------|
--4----4------------------|--4----4------------------|
----------5-5--5-5--5-5---|----------5-5--5-5--5-5-5/|



--------------------------|--------------------------|
--------------------------|--------------------------|
--------------------------|--4----4------------------|
--7----7--7-7--7-7--7-7---|----------5-5--5-5--5-5---|



--------------------------|--------------------------|
--------------------------|--------------------------|
--4----4------------------|--4----4------------------|
----------5-5--5-5--5-5---|----------5-5--5-5--5-5-5/|



--------------------------|--------------------------|
--------------------------|--------------------------|
--------------------------|--4----4------------------|
--7----7--7-7--7-7--7-7---|----------5-5--5-5--5-5---|



--------------------------|--------------------------|
--------------------------|--------------------------|
--4----4------------------|--4----4------------------|
----------5-5--5-5--5-5---|----------5-5--5-5--5-5-5/|



--------------------------|--------------------------|
--------------------------|--------------------------|
--------------------------|--4----4------------------|
--7----7--7-7--7-7--7-7---|----------5-5--5-5--5-5---|



--------------------------|--------------------------|
--------------------------|--------------------------|
--4----4------------------|--4----4------------------|
----------5-5--5-5--5-5---|----------5-5--5-5--5-5-5/|



--------------------------|--------------------------|
--------------------------|--------------------------|
--------------------------|--4----4------------------|
--7----7--7-7--7-7--7-7---|----------5-5--5-5--5-5---|



--------------------------|--------------------------|
--------------------------|--------------------------|
--4----4------------------|--4----4------------------|
----------5-5--5-5--5-5---|----------5-5--5-5--5-5-5/|



--------------------------|--------------------------|
--------------------------|--------------------------|
--------------------------|--4----4------------------|
--7----7--7-7--7-7--7-7---|----------5-5--5-5--5-5---|



--------------------------|--------------------------|
--------------------------|--------------------------|
--4----4------------------|--4----4------------------|
----------5-5--5-5--5-5---|----------5-5--5-5--5-5-5/|



--------------------------|------------------|-----||
--------------------------|------------------|-----||
--------------------------|------------------|-----||
--7----7--7-7--7-7--7-7---|------------------|-----||

Fuente original ATAME [www.atame.org]
Colaborador original: Cabrera Pablo [cabre_pablo@yahoo.com.ar]

Fuente: tusacordes.com