a b c d e f g h i j k l m n o p q r s t u v w x y z 0-9

Mejor No Hablemos De Amor

Enanitos Verdes

			
JEJEJE COMO SIEMPRE SE LA QUIERO DEDICAR A GABY QUE LA QUIERO MUCHISIMO! 
UN SALUDO A LOS MUSICOS DEL COLEGIO GUANAJUATO: 
ORNELAS,JAIME, LUIS DANIEL,LUIS MIGUEL, MARCOJEJEJE YO
Y A MIS AMIGOS: PACO,RENTERIA,CRISTIAN,GABRIEL,
JAIME,CASTOR, ETC.
ESTA CANCÓN ESTA SHIDISIMA!!!! :)

INTRO Y CORO:
G----------------
D----------------
A-44------------- 2 VECES
E----555-5-5-55--
  C#    A
 
G-----------------------------------
D-----------------------------------
A-44--------------------------------
E----555-5-5-55--7-7--555-5-5-55----
  C#     A         B     A

VERSOS 
(AQUI ESCUCHEN MUY BIEN LA CANCION PARA QUE SE FIJEN 
EN LOS TIEMPOS)

G----------------------------------
D----------------------------------
A--4---4----------4--4-------------
E----------5----5------5---5----7--
   C#      A      C#   A        B

TU IMAGEN ME CONGELO...
G-----------
D-----------
A--9----9---
E-----------
   F#
Y NO ENCUENTRO LA RAZÓN...
G-----------
D-----------
A--7--------
E-------7---
   E    B
DE ACUERDO A LA TRADICIÓN...
G------------
D------------
A--9-----9---
E------------
   F#
EL SECRETO...
G------------
D------------
A--7---------
E--------7---
   E     B

LO QUE FALTA DE LA CANCIÓN ES COMO EL INTRO Y EL CORO.

FIN
G-------
D-------
A--4----
E-------
   C#

Fuente original ATAME [www.atame.org]
Colaborador original: Marco A. Jiménez Manrique [marcoblink182@hotmail.com]

Fuente: tusacordes.com