a b c d e f g h i j k l m n o p q r s t u v w x y z 0-9

Me Canse De Amarte

Enanitos Verdes

B
G
Bm
C
D
Em
			
 ENANITOS VERDES: ME CANSE DE AMARTE 10:35 p.m. 08/12/03

INTRO:

B B B B/C [X2]

    G
Se termino,

  Bm
Y esta vez,

      C                        D
No quiero mas mentiras, para que?

      G
No quiero estar,

     Bm
Fingiendo amor,

    C
Crucemos esa línea,

     D
No queda otra salida.


       G  Bm     Em
Me cansé    de amarte,

      C        D
Y no hay solución.


B B B B/C [X2]

    G             Bm
La vida fue, cambiándome,

     C                         D
No siento tus caricias, como ayer,

   G
Aqui no hay,

   Bm
Otra mujer,

   C     
Y hoy te estoy dejando,

     D
Muy solo caminando.


       G  Bm     Em
Me cansé    de amarte,

      C        D
Y no hay solución.

       G  Bm     Em
Me cansé    de amarte,

      C        D
Y no hay solución.



SOLO:~
E|----------------|--------------------------|
B|-5-7-8~--7-5----|-----------8----8---8---8-|
G|-------------7~-|-------------11---9---7---|
D|----------------|--------------------------|
A|----------------|-----5-7~-----------------|
E|----------------|-7-8----------------------|

E|-------------------10--------|-----10-10--12-----------|
B|-----------------10---12-10~-|-/10------------12-10-8~-|
G|-----------5-7-9-------------|-------------------------|
D|-----------------------------|-------------------------|
A|-----5-----------------------|-------------------------|
E|-7-8---8~--------------------|-------------------------|


    G           Bm
Si todo fue, felicidad,

     C                           D
Guardemos el recuerdo hasta la eternidad,

      G
No quiero estar,

    Bm
Contigo mas,

    C
No me preguntes nada,

     D
Me iré por la mañana.



       G  Bm     Em
Me cansé    de amarte,

      C        D
Y no hay solución.

       G  Bm     Em
Me cansé    de amarte,

      C        D
Y no hay solución.


B B B B/C [X2] 

Fuente original ATAME [www.atame.org]
Colaborador original: Marcio Castro [marcio_a_c_a@hotmail.com]

Fuente: tusacordes.com