a b c d e f g h i j k l m n o p q r s t u v w x y z 0-9

Luz De Dia

Enanitos Verdes

			
esta es mi primera trancripsion, sin embargo
se bien como es el bajeo que lleva esta rola, 
y como vi que nadie la habia trancrito como va..
pues decidi hacerlo yo, aunque me tenga que quitar 
la hueva de tener que escribirla.

tienen que escucharla bien, y se daran cuenta de que
el bajo va de la siguiente manera...




g------------------------|-------------------------------|
D------------------7-----|--7---------------5------5-----|
A--------------------7---|----7---------------5-------5--|      
E------------------------|-------------------------------|
   destapa el champain       apaga las luces         dejemos..


g---------------------|--------------------------------|
D-----7-----------9---|9-9---5-----7s9-7---------------|
A--5-------------8----|------------------9-------------|
E---------------------|--------------------------------|
   velas   encendidas  y afuera las heridas    etc...


se repite, en todas las partes estas, menos en el coro,
 el coro va asi...



g------------5-0----5--0-------------------------|
D--------------------------5----------5--6--7----|
A-----------------------------5----------------7-|
E------------------------------------------------|
   por que puedo  mirar el cielo, besar tus manos,...

g----------------------------------------------------
D------7---------10---10-10-5-7s9-7-------------
A----------7---8---------------------9---------------
E----------------------------------------------------
   sentir tu cuerpo, decir tu nombre  etc...

de gual manera, esto se repite en todas las partes de coro
escuchenla, para que le agaren mejor la honda, pero asi
es mas o menos como va realmente.

bueno, ya saben si tienen aguna sujerencia, recomendacion, 
comentario, se saben canciones de trobadoresy me las quieren
pasar por mail,o son nenas de entre 17 años de edad, en adelante,
pues mandenme un e-mail, ok.
grasias a mis compas que me han apollado dentro de la musica
Raul 
Gabriel
Tony
moys
caleb
chuy
memo

alrato, cuidense y diviertanse un resto alrato

Fuente original ATAME [www.atame.org]
Colaborador original: Ricardo Luis Acosta Vargas [marv_in@hotmail.com]

Fuente: tusacordes.com