a b c d e f g h i j k l m n o p q r s t u v w x y z 0-9

Luz De Dia

Enanitos Verdes

			
G----------------------------------------------------------------------
D-------------------------------0-----3--------------0/h2--0-----------      Intro y solo
A----0-----3-----------5--2--------0-----3-----3--------------2--------
E-------0-----5/s0--3--------3--------------3-----3--------------3-----



G----------------------------------------------------------------------
D----------------------------0-----0--3-----2/h3--2-----0/h2--0--------      1er. y 3er. verso
A----0-----0--------5-----5-----0--------3-----------3-----------2-----
E-------0-----0--3-----3--------------------------------------------3--



G----------------------------------------------------------------------
D----------------------------0-----0--3--2/s5--------------------------      2do. y 4to verso
A----0-----0--------5-----5-----0--------------3-----3--2--------------
E-------0-----0--3-----3--------------------------3--------3--3--------



G----------------------------------------------------------------------
D-------------------------2--------------------------------------------      Coro varias veces
A----3-----3-----5-----0-----0-----3-----------------------------------
E-------3-----3-----3-----------1-----1--------------------------------


José Camilo Verástegui Mestizo
verastegui@hotmail.com

Fuente original ATAME [www.atame.org]
Colaborador original: José Camilo Verástegui Mestizo [verastegui@hotmail.com]

Fuente: tusacordes.com