a b c d e f g h i j k l m n o p q r s t u v w x y z 0-9

Luz De Dia

Enanitos Verdes

			
H     -- Hammer-on 
    P     -- Pull-off 
~ ~ ~  -- Vibrato 
      ^  -- Bend 
      /   -- Slide 

Solo: 

E|-----12----12--13--15--13--12--13--12--8/10--8--------| 
B|------------------------------------------------------| 
G|-----12----12--14--16--14--12--14--12--8/10--9--------| 
D|------------------------------------------------------| 
A|------------------------------------------------------| 
E|------------------------------------------------------| 

E|------------------------------------------------------| 
B|--------8----10---------------------------------------| 
G|-----9----9------9--7^--5~ ~ ~ -----5--7/9/7----------| 
D|-----------------------------------7------------------| 
A|------------------------------------------------------| 
E|------------------------------------------------------| 

E|---8--8~ ~ ~ -10---8--10--12----8/10----8-------------| 
B|---------------12--10--12--13--10/12----10------------| 
G|------------------------------------------------------| 
D|------------------------------------------------------| 
A|------------------------------------------------------| 
E|------------------------------------------------------| 

E|---7h8p7----------------------------------------------| 
B|-----------8------------------------------------------| 
G|--------------7--5---7/9/7----------------------------| 
D|------------------------------------------------------| 
A|------------------------------------------------------| 
E|------------------------------------------------------|

Fuente original ATAME [www.atame.org]
Colaborador original: Luis Fernando Cuello [cuelloluis@hotmail.com]

Fuente: tusacordes.com