a b c d e f g h i j k l m n o p q r s t u v w x y z 0-9

Lamento Boliviano

Enanitos Verdes

Em
Bm
Am
B
			
Em
Me quieren agitar me incitan a gritar
Bm
Soy como una roca palabras no me tocan
Am
Adentro hay un volcán que pronto va a estallar
Em             Si7
Yo quiero estar tranquilo

Em
Es mi situación una desolación
Bm
Soy como un lamento lamento boliviano
Am
Que un día empezó y no va a terminar
Em            Si7
Y a nadie hace daño

 Em         Bm      Am        Em    Si7
uoooooooooh ioiooooo hehehehe  ieeee


Em             Bm
Y yo estoy aquí borracho y loco 
Am                 B 
y mi corazón idiota siempre brillará
Em           B 
Y yo te amaré te amaré por siempre
Am
Nena no te peines en la cama
Em               Si7
Que los viajantes se van a atrazar

Solo 
----------------------------------------12--------
---7-8 7--------7-8 7-----------------12---b15-12-
-9-------9-----7-------b9-9-------b14-------------
9---------9--9--------------7-9-7-----------------
--------------------------------------------------
--------------------------------------------------

------------------------------------------12-b14a15
----------------------------------------12--------
b14-12-14-b14-12-14-12-11-12-11-------------------
--------------------------------------------------
-------------------------------14-12-14-----------
--------------------------------------------------

15-14-12-15-14-12----------------------------------
------------------b15-15 12------------------------
-----------------------------14-12-14------12-14/12
--------------------------------------12-14--------
---------------------------------------------------
---------------------------------------------------


-----------------------14-14/15-15-14-12---14/15---
-------------------------------------------------14
-14-12/11/12/11/12--14-----------------------------
---------------------------------------------------
---------------------------------------------------
---------------------------------------------------


13/14---9/12------------------------
-----12------10-b10-10-8------------
-------------------------9----------
------------------------------------
------------------------------------
------------------------------------

Em      Bm       Am       Si7
uoooooo  ioioooooo heehehehe  yeaaaaahhh
 
Em             Bm
Y yo estoy aquí borracho y loco 
Am                 B 
y mi corazón idiota siempre brillará
Em           B 
Y yo te amaré te amaré por siempre
Am
Nena no te peines en la cama
Em               Si7
Que los viajantes se van a atrazar

Em             Bm
Y yo estoy aquí borracho y loco 
Am                 B 
y mi corazón idiota siempre brillará
Em           B 
Y yo te amaré te amaré por siempre
Am
Nena no te peines en la cama
Em               Si7
Que los viajantes se van a atrazar

solo II


----------------------------------------------------         
----------------------------------------------------         
12-11--------------------12-11-------------------12-         
------14-12-14---14-12----------14-12-14-14-12------         
-----------------------14----------------------14---         
----------------------------------------------------         

---------------------------------------------------------
---------------------------------------------------------
11-----------------------------12-11---------------------
----------10-------------12-9--------14-12-14-12/14-12---
--------10---12-------10-------------------------------14
---10/12---------10/12-----------------------------------

Fuente: Tusacordes