a b c d e f g h i j k l m n o p q r s t u v w x y z 0-9

Lamento Boliviano

Enanitos Verdes

			
Esta es para Pedro Isola y que se la aprenda

Los compaces que estan en blanco son de la Intro

G||------|------|------|------|------|------|------|--------------------------|
D||------|------|------|------|------|------|------|--------------------------|
A||------|------|------|------|------|------|------|--------------------------|
E||------|------|------|------|------|------|------|--0--0--0--0--0--0--0--0--|



--------------------------|--------------------------|
--------------------------|--------------------------|
--------------------------|--2--2--2--2--2--2--2--2--|
--0--0--0--0--0--0--0--0--|--------------------------|



--------------------------|--------------------------|
--------------------------|--------------------------|
--2--2--2--2--2--2--1--0--|--0--0--0--0--0--0--0--0--|
--------------------------|--------------------------|



--------------------------|--------------------------|
--------------------------|--2--2--2--2--2--2--2--2--|
--0--0--0--0--0--0--0--0--|--------------------------|
--------------------------|--------------------------|



--4--4--4--4--4--4--4--4--|--------------------------|
--------------------------|--------------------------|
--------------------------|--------------------------|
--------------------------|--0--0--0--0--0--0--0--0--|



--------------------------|--------------------------|
--------------------------|--------------------------|
--------------------------|--2--2--2--2--2--2--2--2--|
--0--0--0--0--0--0--0--0--|--------------------------|



--------------------------|--------------------------|
--------------------------|--------------------------|
--2--2--2--2--2--2--1--0--|--0--0--0--0--0--0--0--0--|
--------------------------|--------------------------|



--------------------------|--------------------------|
--------------------------|--2--2--2--2--2--2--2--2--|
--0--0--0--0--0--0--0--0--|--------------------------|
--------------------------|--------------------------|



--4--4--4--4--4--4--4--4--|-------------------------|------------------------|
--------------------------|-------------------------|------------------------|
--------------------------|-------------------------|------------------------|
--------------------------|--0----0--0--0--0--0--0--|--0----0--0--0--0--0----|



-------------------------|------------------------|-------------------------|
-------------------------|------------------------|-------------------------|
--2----2--2--2--2--2--2--|--2----2--2--2--2--2----|--0----0--0--0--0--0--0--|
-------------------------|------------------------|-------------------------|



------------------------|-------------------------|--4----4--4--4--4--4----|
------------------------|--2----2--2--2--2--2--2--|------------------------|
--0----0--0--0--0--0----|-------------------------|------------------------|
------------------------|-------------------------|------------------------|



--------------------------|--------------------------|
--------------------------|--------------------------|
--------------------------|--------------------------|
--0--0--0--0--0--0--0--0--|--0--0--0--0--0--0--0--0--|



--------------------------|--------------------------|
--------------------------|--------------------------|
--2--2--2--2--2--2--2--2--|--2--2--2--2--2--2--2--2--|
--------------------------|--------------------------|



--------------------------|--------------------------|
--------------------------|--------------------------|
--0--0--0--0--0--0--0--0--|--0--0--0--0--0--0--0--0--|
--------------------------|--------------------------|



--------------------------|--4--4--4--4--4--4--4--4--|------|------|------|
--2--2--2--2--2--2--2--2--|--------------------------|------|------|------|
--------------------------|--------------------------|------|------|------|
--------------------------|--------------------------|------|------|------|



------|------|------|------|------|------|------|------|------|------|------|
------|------|------|------|------|------|------|------|------|------|------|
------|------|------|------|------|------|------|------|------|------|------|
------|------|------|------|------|------|------|------|------|------|------|



------|------|-------------------------|------------------------|
------|------|-------------------------|------------------------|
------|------|-------------------------|------------------------|
------|------|--0----0--0--0--0--0--0--|--0----0--0--0--0--0----|



-------------------------|------------------------|-------------------------|
-------------------------|------------------------|-------------------------|
--2----2--2--2--2--2--2--|--2----2--2--2--2--2----|--0----0--0--0--0--0--0--|
-------------------------|------------------------|-------------------------|



------------------------|-------------------------|--4----4--4--4--4--4----|
------------------------|--2----2--2--2--2--2--2--|------------------------|
--0----0--0--0--0--0----|-------------------------|------------------------|
------------------------|-------------------------|------------------------|



--------------------------|--------------------------|
--------------------------|--------------------------|
--------------------------|--------------------------|
--0--0--0--0--0--0--0--0--|--0--0--0--0--0--0--0--0--|



--------------------------|--------------------------|
--------------------------|--------------------------|
--2--2--2--2--2--2--2--2--|--2--2--2--2--2--2--2--2--|
--------------------------|--------------------------|



--------------------------|--------------------------|
--------------------------|--------------------------|
--0--0--0--0--0--0--0--0--|--0--0--0--0--0--0--0--0--|
--------------------------|--------------------------|



--------------------------|--4--4--4--4--4--4--4--4--|
--2--2--2--2--2--2--2--2--|--------------------------|
--------------------------|--------------------------|
--------------------------|--------------------------|



--------------------------|--------------------------|
--------------------------|--------------------------|
--------------------------|--------------------------|
--0--0--0--0--0--0--0--0--|--0--0--0--0--0--0--0--0--|



--------------------------|--------------------------|
--------------------------|--------------------------|
--2--2--2--2--2--2--2--2--|--2--2--2--2--2--2--2--2--|
--------------------------|--------------------------|



--------------------------|--------------------------|
--------------------------|--------------------------|
--0--0--0--0--0--0--0--0--|--0--0--0--0--0--0--0--0--|
--------------------------|--------------------------|



--------------------------|--4--4--4--4--4--4--4--4--|
--2--2--2--2--2--2--2--2--|--------------------------|
--------------------------|--------------------------|
--------------------------|--------------------------|



--------------------------|--------------------------|
--------------------------|--------------------------|
--------------------------|--------------------------|
--0--0--0--0--0--0--0--0--|--0--0--0--0--0--0--0--0--|



--------------------------|--------------------------|
--------------------------|--------------------------|
--2--2--2--2--2--2--2--2--|--2--2--2--2--2--2--2--2--|
--------------------------|--------------------------|



--------------------------|--------------------------|
--------------------------|--------------------------|
--0--0--0--0--0--0--0--0--|--0--0--0--0--0--0--0--0--|
--------------------------|--------------------------|



--------------------------|------------------------|---------------------|
--2--2--2--2--2--2--2--2--|------------------------|---------------------|
--------------------------|--7/8-7-----------------|--2--0---------------|
--------------------------|---------5--3--5--------|----------2----------|



------------------------|---------------------|----------------------|
------------------------|---------------------|------5--2------------|
--7/8-7-----------------|--2--0---------------|--2/5-----------------|
---------5--3--5--------|----------2----------|----------------------|



-----------------------|------------------------|---------------------|------|
---------7--4----------|------------------------|---------------------|------|
--4/7-7----------------|--7/8-7-----------------|--2--0----7----------|------|
-----------------------|---------5--3--5--------|---------------------|------|



------|------|------|------|------|------||
------|------|------|------|------|------||
------|------|------|------|------|------||
------|------|------|------|------|------||

Fuente original ATAME [www.atame.org]
Colaborador original: Cabrera Pablo [cabre_pablo@yahoo.com.ar]

Fuente: tusacordes.com