a b c d e f g h i j k l m n o p q r s t u v w x y z 0-9

La Muralla Verde

Enanitos Verdes

			
La muralla verde - Enanitos Verdes                                 


BATERIA
                                                                                
C||------------------|----------------------------|----------------------------|
C||------------------|--------46------46----46----|--46----46------46----46----|
C||------------------|--49----38------------38----|--------38------------38----|
C||------------------|----------------------------|----------------------------|
C||------------------|--36--------36--36----------|--36--------36--36----------|
C||------------------|----------------------------|----------------------------|


                                                          
----------------------------|----------------------------|
--46----46------46----46----|--46----46------46----46----|
--------38------------38----|--------38------------38----|
----------------------------|----------------------------|
--36--------36--36----------|--36--------36--36----------|
----------------------------|----------------------------|


                                                          
----------------------------|----------------------------|
--46----46------46----46----|--46----46------46----46----|
--------38------------38----|--------38------------38----|
----------------------------|----------------------------|
--36--------36--36----------|--36--------36--36----------|
----------------------------|----------------------------|


                                                          
----------------------------|----------------------------|
--46----46------46----46----|--46----46------46----46----|
--------38------------38----|--------38------------38----|
----------------------------|----------------------------|
--36--------36--36----------|--36--------36--36----------|
----------------------------|----------------------------|


                                                          
----------------------------|----------------------------|
--46----46------46----46----|--46----46------46----46----|
--------38------------38----|--------38------------38----|
----------------------------|----------------------------|
--36--------36--36----------|--36--------36--36----------|
----------------------------|----------------------------|


                                                          
----------------------------|----------------------------|
--46----46------46----46----|--46----46------46----46----|
--------38------------38----|--------38------------38----|
----------------------------|----------------------------|
--36--------36--36----------|--36--------36--36----------|
----------------------------|----------------------------|


                                                          
----------------------------|----------------------------|
--46----46------46----46----|--46----46------46----46----|
--------38------------38----|--------38------------38----|
----------------------------|----------------------------|
--36--------36--36----------|--36--------36--36----------|
----------------------------|----------------------------|


                                                            
----------------------------|------------------------------|
--46----46------46----46----|--46----46------46----49--49--|
--------38------------38----|--------38------------38------|
----------------------------|------------------------------|
--36--------36--36----------|--36--------36--36------------|
----------------------------|------------------------------|


                                                          
----------------------------|----------------------------|
--46----46------46----46----|--46----46------46----46----|
--------38------------38----|--------38------------38----|
----------------------------|----------------------------|
--36--------36--36----------|--36--------36--36----------|
----------------------------|----------------------------|


                                                          
----------------------------|----------------------------|
--46----46------46----46----|--46----46------46----46----|
--------38------------38----|--------38------------38----|
----------------------------|----------------------------|
--36--------36--36----------|--36--------36--36----------|
----------------------------|----------------------------|


                                                          
----------------------------|----------------------------|
--46----46------46----46----|--46----46------46----46----|
--------38------------38----|--------38------------38----|
----------------------------|----------------------------|
--36--------36--36----------|--36--------36--36----------|
----------------------------|----------------------------|


                                                          
----------------------------|----------------------------|
--46----46------46----46----|--46----46------46----46----|
--------38------------38----|--------38------------38----|
----------------------------|----------------------------|
--36--------36--36----------|--36--------36--36----------|
----------------------------|----------------------------|


                                                          
----------------------------|----------------------------|
--46----46------46----46----|--46----46------46----46----|
--------38------------38----|--------38------------38----|
----------------------------|----------------------------|
--36--------36--36----------|--36--------36--36----------|
----------------------------|----------------------------|


                                                          
----------------------------|----------------------------|
--46----46------46----46----|--46----46------46----46----|
--------38------------38----|--------38------------38----|
----------------------------|----------------------------|
--36--------36--36----------|--36--------36--36----------|
----------------------------|----------------------------|


                                                          
----------------------------|----------------------------|
--46----46------46----46----|--46----46------46----46----|
--------38------------38----|--------38------------38----|
----------------------------|----------------------------|
--36--------36--36----------|--36--------36--36----------|
----------------------------|----------------------------|


                                                          
----------------------------|----------------------------|
--46----46------46----46----|--46----46------46----46----|
--------38------------38----|--------38------------38----|
----------------------------|----------------------------|
--36--------36--36----------|--36--------36--36----------|
----------------------------|----------------------------|


                                                          
----------------------------|----------------------------|
--46----46------46----46----|--46----46------46----46----|
--------38------------38----|--------38------------38----|
----------------------------|----------------------------|
--36--------36--36----------|--36--------36--36----------|
----------------------------|----------------------------|


                                                          
----------------------------|----------------------------|
--46----46------46----46----|--46----46------46----46----|
--------38------------38----|--------38------------38----|
----------------------------|----------------------------|
--36--------36--36----------|--36--------36--36----------|
----------------------------|----------------------------|


                                                          
----------------------------|----------------------------|
--46----46------46----46----|--46----46------46----46----|
--------38------------38----|--------38------------38----|
----------------------------|----------------------------|
--36--------36--36----------|--36--------36--36----------|
----------------------------|----------------------------|


                                                            
------------------------------|----------------------------|
--46----46------46----49--49--|--46----46------46----46----|
--------38------------38------|--------38------------38----|
------------------------------|----------------------------|
--36--------36--36------------|--36--------36--36----------|
------------------------------|----------------------------|


                                                          
----------------------------|----------------------------|
--46----46------46----46----|--46----46------46----46----|
--------38------------38----|--------38------------38----|
----------------------------|----------------------------|
--36--------36--36----------|--36--------36--36----------|
----------------------------|----------------------------|


                                                          
----------------------------|----------------------------|
--46----46------46----46----|--46----46------46----46----|
--------38------------38----|--------38------------38----|
----------------------------|----------------------------|
--36--------36--36----------|--36--------36--36----------|
----------------------------|----------------------------|


                                                                
----------------------------|----------------------------------|
--46----46------46----46----|--46----46------46----------------|
--------38------------38----|--------38----------38--38--38-38-|
----------------------------|----------------------------------|
--36--------36--36----------|--36--------36--36----------------|
----------------------------|----------------------------------|


                                                          
----------------------------|----------------------------|
--46----46------46----46----|--46----46------46----46----|
--------38------------38----|--------38------------38----|
----------------------------|----------------------------|
--36--------36--36----------|--36--------36--36----------|
----------------------------|----------------------------|


                                                          
----------------------------|----------------------------|
--46----46------46----46----|--46----46------46----46----|
--------38------------38----|--------38------------38----|
----------------------------|----------------------------|
--36--------36--36----------|--36--------36--36----------|
----------------------------|----------------------------|


                                                          
----------------------------|----------------------------|
--46----46------46----46----|--46----46------46----46----|
--------38------------38----|--------38------------38----|
----------------------------|----------------------------|
--36--------36--36----------|--36--------36--36----------|
----------------------------|----------------------------|


                                                        
----------------------------|--------------------------|
--46----46------46----46----|--------------------------|
--------38------------38----|--38---38---38--38--------|
----------------------------|--------------------------|
--36--------36--36----------|--------------------------|
----------------------------|--------------------------|


                                                          
----------------------------|----------------------------|
--46----46------46----46----|--46----46------46----46----|
--------38------------38----|--------38------------38----|
----------------------------|----------------------------|
--36--------36--36----------|--36--------36--36----------|
----------------------------|----------------------------|


                                                          
----------------------------|----------------------------|
--46----46------46----46----|--46----46------46----46----|
--------38------------38----|--------38------------38----|
----------------------------|----------------------------|
--36--------36--36----------|--36--------36--36----------|
----------------------------|----------------------------|


                                                          
----------------------------|----------------------------|
--46----46------46----46----|--46----46------46----46----|
--------38------------38----|--------38------------38----|
----------------------------|----------------------------|
--36--------36--36----------|--36--------36--36----------|
----------------------------|----------------------------|


                                                            
----------------------------|------------------------------|
--46----46------46----46----|--46----46------46----49--49--|
--------38------------38----|--------38------------38------|
----------------------------|------------------------------|
--36--------36--36----------|--36--------36--36------------|
----------------------------|------------------------------|


                                                          
----------------------------|----------------------------|
--46----46------46----46----|--46----46------46----46----|
--------38------------38----|--------38------------38----|
----------------------------|----------------------------|
--36--------36--36----------|--36--------36--36----------|
----------------------------|----------------------------|


                                                          
----------------------------|----------------------------|
--46----46------46----46----|--46----46------46----46----|
--------38------------38----|--------38------------38----|
----------------------------|----------------------------|
--36--------36--36----------|--36--------36--36----------|
----------------------------|----------------------------|


                                                          
----------------------------|----------------------------|
--46----46------46----46----|--46----46------46----46----|
--------38------------38----|--------38------------38----|
----------------------------|----------------------------|
--36--------36--36----------|--36--------36--36----------|
----------------------------|----------------------------|


                                                                           
----------------------------|----------------------|----------------------|
--46----46------46----46----|------38--------38----|------38--------38----|
--------38------------38----|------38--------38----|------38--------38----|
----------------------------|----------------------|----------------------|
--36--------36--36----------|----------------------|----------------------|
----------------------------|----------------------|----------------------|


                                                                           
----------------------|----------------------|----------------------------|
------38--------38----|------38--------38----|--46----46------46----46----|
------38--------38----|------38--------38----|--------38------------38----|
----------------------|----------------------|----------------------------|
----------------------|----------------------|--36--------36--36----------|
----------------------|----------------------|----------------------------|


                                                          
----------------------------|----------------------------|
--46----46------46----46----|--46----46------46----46----|
--------38------------38----|--------38------------38----|
----------------------------|----------------------------|
--36--------36--36----------|--36--------36--36----------|
----------------------------|----------------------------|


                                                                           
--------------------------------------------------------------------------|
--------------------48-48-48-48-48-48-48-48-48-47-47-47-47-47-47-47-47-47-|
--38-38-38-38-38-38-------------------------------------------------------|
--------------------------------------------------------------------------|
--------------------------------------------------------------------------|
--------------------------------------------------------------------------|


                                                          
----------------------------|----------------------------|
--49----46------46----46----|--46----46------46----46----|
--------38------------38----|--------38------------38----|
----------------------------|----------------------------|
--36--------36--36----------|--36--------36--36----------|
----------------------------|----------------------------|


                                                          
----------------------------|----------------------------|
--46----46------46----46----|--46----46------46----46----|
--------38------------38----|--------38------------38----|
----------------------------|----------------------------|
--36--------36--36----------|--36--------36--36----------|
----------------------------|----------------------------|


                                                          
----------------------------|----------------------------|
--46----46------46----46----|--46----46------46----46----|
--------38------------38----|--------38------------38----|
----------------------------|----------------------------|
--36--------36--36----------|--36--------36--36----------|
----------------------------|----------------------------|


                                                         
----------------------------|--------------------------||
--46----46------46----46----|--49--49--49----49--------||
--------38------------38----|--38--38------------------||
----------------------------|--------------------------||
--36--------36--36----------|--------------------------||
----------------------------|--------------------------||

Fuente original ATAME [www.atame.org]
Colaborador original: c|-|risti/- [acorde_49@hotmail.com]

Fuente: tusacordes.com