a b c d e f g h i j k l m n o p q r s t u v w x y z 0-9

La Muralla Verde

Enanitos Verdes

			
LA MURALLA VERDE  -- ENANITOS VERDES 

POR FIN!!!! DISFRUTENLA, ES UN MUY BUEN TAB, SI TIENEN DUDAS CON LOS TAPPINGS COMUNIQUENSE CON EL MAESTRO 
DE MAESTROS NODLES, AHI APARECE SU EMAIL, BUENO MENOS PLATICAS, AHI VAMOS....

INTRO:
E |------------------------------------------------------------------------11---------------------------|
B |-----------------10/sl 12---12 ~~-11~~ -------------------10/sl 12~~-------12-11---------------------|
G |--------9-----------------------------------------9------------------------------------11*9*11*9*11--|
D |--9*11-----11------------------------------9*11-----11-----------------------------------------------|
A |-----------------------------------------------------------------------------------------------------|
E |-----------------------------------------------------------------------------------------------------|

C#m                             F#M
Estoy parado sobre la muralla que divide
C#m                             F#M
todo lo que fue y lo que sera
C#m                             F#M
estoy mirando como aquellas viejas ilusiones
C#m                             F#M
pasando la muralla se hacen realidad

CORO:
        D#m              G#m
Pero como el amor de ayer
D#m              G#m
Pero como el amor de ayer
D#m              G#m
volvio a desaperecer, desaparecer

AQUI SE REPITE EL INTRO  x 2 veces .

(C#m  --  F#M)
Estoy parado sobre la muralla que divide
todo lo que ame de lo que amare
estoy mirando como mis heridas se cerraron
y como se desangra un nuevo corazón
Pero como el amor de ayer........

SOLO  DISTORSION , CHORUS , DELAY , PHASER


E |------------------14^--14^-12-14^-14*12-----------|
B |-10/12--12-12-------------------------------14~~--|
G |--------------------------------------------------|
D |--------------------------------------------------|
A |--------------------------------------------------|
E |--------------------------------------------------|


E |---------------12-9-----9----------------12------------------------|
B |-------9--12--------12---------------9------12---------------------|
G |-8/11---------------------9~---9-11------------11-9/1~~-1~/11~~--|
D |-------------------------------------------------------------------|
A |-------------------------------------------------------------------|
E |-------------------------------------------------------------------|


AQUI!!! ES LA PARTE DIFICIL AMIGOS, PRACTIQUENLE, YA SABEN DUDAS AHI ESTA EL E-MAIL

E |-------------------------------------------------------------------------------|
B |-9*12-14x4 ---------9*12-16x4------9*12-17x4-----9*12-19~x1------------|
G |-------------------------------------------------------------------------------|
D |-------------------------------------------------------------------------------|
A |-------------------------------------------------------------------------------|
E |-------------------------------------------------------------------------------|



(C#m  --  F#M)
Estoy parado sobre la muralla que divide
todo lo que fue de lo que sera
estoy mirando como aquella vieja sicodelia
estoy fijandome como viene y va


Pero como el amor de ayer........
Transcrita por NoOdLeS  cualquier petición escribe a : d197@hotmail.com
TANTOS AÑOS PIDIENDO ESTA CANCION,  BUENO AMIGOS ESO ES TODO
LA PARTE MAS DIFICIL DE ESTA CANCION CON SIN LUGAR A DUDAS LOS TAPPING, DUDAS
CON EL MAESTRO NoOdles, bueno amigos yo soy daniel la rola es del maestro mencionado

Fuente original ATAME [www.atame.org]
Colaborador original: daniel ramirez peña [daneri2@latinmail.com]

Fuente: tusacordes.com