a b c d e f g h i j k l m n o p q r s t u v w x y z 0-9

La Muralla Verde

Enanitos Verdes

			
Al principio cuando entran bateria, la segunda guitarra,
y el bajo juntos, el bajo hace esto:

            fig. 1
G:-------1------------------------:|
D:------2-4-----------------------:|
A:--4--4-----4-2-4--4---------2-4-:|
E:----------2---------0-4-2--2----:|

Luego empieza el verso,
Estoy parado sobre la muralla.....
  solo haces esto,,
      fig. 2
G:-------------------:|
D:-------------------:|
A:-4-44-2----------:|  Las notas entre parentesis son
E:----------2-22-4-:|  arreglos que derrepente mete.

Coro:
      fig. 3         fig. 4
G:-----8---------| G:----8-6-6----------|
D:----8-66666666-| D:-------8--66666666-|
A:-6-6-----------| A:-6-6---------------|
E:---------------| E:-------------------|
Son tres vueltas en las que puedes meter cualquiera de las
figuras 3 y 4
y al finalizar la tercera vuelta tocas:
D:-4444444444-|

Para luego regresar al verso con la fig. 2
Coro, otra vez
Verso pero ahora con la fig. 1
Coro, 
fig. 1 hasta que se acabe la canción

Quejas, Comentarios, Sugerencias, etc. a mi e-mail.

Fuente original ATAME [www.atame.org]
Colaborador original: Jorge Arguelles [jorgearguelles@hotmail.com]

Fuente: tusacordes.com