a b c d e f g h i j k l m n o p q r s t u v w x y z 0-9

La Calle De La Soledad

Enanitos Verdes

			
D                    F#m
Mucho tiempo pasó de aquella primera vez
                      D7                     G
en que mirarnos a los ojos nos daba como vergüenza
                 A#                   D
te empecé a conocer y yo supe sin pensar
              E                 A
que eras para mí y yo era para ti

               D                F#m
Nunca me pareció tan hermoso el sol
             D7            G
nunca vi brillar tanto el día
                   A#                 D
tan hermoso es el sol tan hermosa su luz
                E                   A
tan hermosa tu voz tan bellos tus ojos

                G            E             D
Yo conozco muy bien ya la calle de la soledad
                  G      E            D
y por nada del mundo la volvería a pisar
       A               G
solo quiero estar contigo

                 D                 F#m
Quiero que sepa hoy que dependo de vos
                    D7                    G
mi vida está en tus manos mi corazón es tuyo
                   A#                 D
tan hermoso es el sol tan hermosa su luz
                E                   A
tan hermosa tu voz tan bellos tus ojos

                G            E             D
Yo conozco muy bien ya la calle de la soledad
                  G      E            D
y por nada del mundo la volvería a pisar
       A               D
solo quiero estar contigo

   D                        F#m                        D7
E -----------------------------------------------------14-14-15-14-10h12-10-
B -10-10-8-8-7--------------------10-10-8-8-7-8s10-10-----------------------
G -------------9-7-9h11-9-7-9-7---------------------------------------------
D --------------------------------------------------------------------------
A --------------------------------------------------------------------------
E --------------------------------------------------------------------------

                      G
E -12-10-12--13-12-10-7-10--------------------------------------------------
B --------------------------------------------------------------------------
G --------------------------------------------------------------------------
D --------------------------------------------------------------------------
A --------------------------------------------------------------------------
E --------------------------------------------------------------------------
                   A#                 D
tan hermoso es el sol tan hermosa su luz
                E                   A
tan hermosa tu voz tan bellos tus ojos
      
tus ojos.....

D F#m D7 G A# D E A

Fuente original ATAME [www.atame.org]
Colaborador original: Juan Sebastián Jesús Sossa [jsjs85@hotmail.com]

Fuente: tusacordes.com