a b c d e f g h i j k l m n o p q r s t u v w x y z 0-9

H.i.v.

Enanitos Verdes

B
Am
			
Una version anterior decia algo similar, yo la cambie 

Intro:
               B Am
E---2-------------
A-----0/2-0/2--2-0
D--------------4-2
G--------------4-2
B--------------4-2
e-----------------

Acordes
Si,LaM,Fa#m

Parece el milagro y no

(E--0-3-4- )
al terminar rasgues dos veces Sol

Solo

E-----------------------
A-----------------------
D12/14/16--16------------
G------------14h16----16-14
B------------------15----14
e------------------------14

E-----------------------
A-----------------------
D12/14/16--16------------
G------------14h16----14-13
B------------------15----13
e------------------------13

E-----------------------
A-----------------------
D12/14/16--16------------
G------------14h16----16-14
B------------------15----14
e------------------------14

E-----------------------
A-----------------------
D12/14/16--16------------
G------------14h16----16-13
B------------------15----13
e------------------------13
Wa
Ahi esta el solo, espero que sea de su agrado
dudas o sugerencias a elpollo89@hotmail.com
esta rola se la dedico al team peña
y a cynthia TKM
Enanitos Verdes ES LA LEY

Fuente original ATAME [www.atame.org]
Colaborador original: Pollito [elpollo89@hotmail.com]

Fuente: tusacordes.com