a b c d e f g h i j k l m n o p q r s t u v w x y z 0-9

H.i.v.

Enanitos Verdes

			
Intro: Dos veces

e:-----------------------I-----------------------I
B:-----------------------I-------------------5---I
G:----------------4--2---I----------------4--4---I
D:---------0------4--2---I---------0------4--2---I
A:-----0-2---2----2--0---I-----0-2---2----2--2---I
E:---2-------------------I---2---------------0---I



B          A           B             E
Lejos de estar sin fe, vi muchos de los caídos,

B          A          E    F#
entre los cuales un amigo.

B        A          B        E
Mucha resignación mas ayuda esperaba,

B             A           E    F#
cierran la entrada de su casa.



G#m              A       *  G#m       A           *
    Espera el milagro y no, parece desearlo y no

G#m           A
    el último acto, acto de amor.



*Figura 1

e:--------------I
B:--------------I
G:--------------I
D:--------------I
A:--------------I
E:---0-4-5~~~---I




Dos veces

e:-----------------------I-----------------------I
B:-----------------------I-------------------5---I
G:----------------4--2---I----------------4--4---I
D:---------0------4--2---I---------0------4--2---I
A:-----0-2---2----2--0---I-----0-2---2----2--2---I
E:---2-------------------I---2---------------0---I

Acto de amor

B       A              B           E
Nada me sorprendió, al escuchar lo relatado.

B           A            E      F#
No es el destino que esperamos.

B           A         B           E
Mientras estés de pie y tengas tu mente en blanco,

B        A             E     F#
nada podrá hacerte mas daño.



G#m               A        *  G#m          A     *
    Mi casa es tu casa y no... dudes en llamarme,

G#m           A
    el último acto, acto de amor.



*Figura 1

e:--------------I
B:--------------I
G:--------------I
D:--------------I
A:--------------I
E:---0-4-5~~~---I





B         A             E             B
Acto de amor, acto de amor, acto de amor...

B         A             E             B
Acto de amor, acto de amor, acto de amor...



      F#              A          E
Y le ruego, ruego al cielo que alivie tu temor

      F#        A          E           F#
y aparezca el remedio que alivie tu dolor.



Dos veces

e:-----------------------I-----------------------I
B:-----------------------I-------------------5---I
G:----------------4--2---I----------------4--4---I
D:---------0------4--2---I---------0------4--2---I
A:-----0-2---2----2--0---I-----0-2---2----2--2---I
E:---2-------------------I---2---------------0---I


B       A          B       E
Vamos a la ciudad traeré unos abrigos

B        A          E     F#
así ayudaremos al olvido.

B        A         B            E
Nadie podrá decir nada que no se haya dicho

B               A            E     F#
vive o muere en paz contigo mismo.



G#m               A        *  G#m          A     *
    Mi casa es tu casa y no... dudes en llamarme,

G#m           A
    el último acto, acto de amor.


*Figura 1

e:--------------I
B:--------------I
G:--------------I
D:--------------I
A:--------------I
E:---0-4-5~~~---I





B         A             E             B
Acto de amor, acto de amor, acto de amor...

B         A
Acto de amor

          E
Acto de amor

          B
Acto de amor...





Dos veces

e:-----------------------I-----------------------I
B:-----------------------I-------------------5---I
G:----------------4--2---I----------------4--4---I
D:---------0------4--2---I---------0------4--2---I
A:-----0-2---2----2--0---I-----0-2---2----2--2---I
E:---2-------------------I---2---------------0---I




Outro: Con Wah

e:-------------------------------I---------------------14-----------I
B:-------------15-------15-------I-------------15---------15b15-----I
G:-------14-16----16~~~----14~~~-I-------14-16----16~~~-------------I
D:---/16-------------------------I---/16----------------------------I
A:-------------------------------I----------------------------------I
E:-------------------------------I----------------------------------I



Cd. Juárez
Mayo 2005

Fuente original ATAME [www.atame.org]
Colaborador original: Rubén Pérez [pgjr13@atame.org]

Fuente: tusacordes.com