a b c d e f g h i j k l m n o p q r s t u v w x y z 0-9

Guitarras Blancas

Enanitos Verdes

			
C||--------------------------|--36---------36-------36----36--36--36--|
C||--------------------------|------42--42----42----42----42--42--42--|
C||--------------------------|----------------------------------------|
C||--------------------------|--49------40-------40----40-----40------|
C||--------------------------|----------------------------------------|
C||--31----31----31----31----|----------------------------------------|


                                         
--36---------36-------36----36--36------|
--42--42--42----42----42----42--42--42--|
----------------------------------------|
----------40-------40----40-----40------|
----------------------------------------|
----------------------------------------|


                                         
--36---------36-------36----36------36--|
--42--42--42----42----42----42--42--42--|
----------------------------------------|
----------40-------40----40-----40------|
----------------------------------------|
----------------------------------------|


                                           
--36---------36-------36----36--36--------|
--42--42--42----42----42----42--42--------|
------------------------------------------|
----------40-------40----40-----40--40-40-|
------------------------------------------|
------------------------------------------|


                                         
--36---------36-------36----36--36------|
--42--42--42----42----42----42--42--42--|
----------------------------------------|
--49------40-------40----40-----40------|
----------------------------------------|
----------------------------------------|


                                         
--36---------36-------36----36--36--36--|
--42--42--42----42----42----42--42--42--|
----------------------------------------|
----------40-------40----40-----40------|
----------------------------------------|
----------------------------------------|


                                         
--36---------36-------36----36--36--36--|
------42--42----42----42----42--42--42--|
----------------------------------------|
--49------40-------40----40-----40------|
----------------------------------------|
----------------------------------------|


                                               
--36---------36-------36----36----36----36----|
--42--42--42----42----42----42----42----42----|
----------------------------------------------|
----------40-------40----40----40-40-40-40-40-|
----------------------------------------------|
----------------------------------------------|


                                         
--36---------36-------36----36--36--36--|
------42--42----42----42----42--42--42--|
----------------------------------------|
--49------40-------40----40-----40------|
----------------------------------------|
----------------------------------------|


                                         
--36---------36-------36----36--36--36--|
--42--42--42----42----42----42--42--42--|
----------------------------------------|
----------40-------40----40-----40------|
----------------------------------------|
----------------------------------------|


                                         
--36---------36-------36----36--36--36--|
--42--42--42----42----42----42--42--42--|
----------------------------------------|
--49------40-------40----40-----40------|
----------------------------------------|
----------------------------------------|


                                         
--36---------36-------36----36--36--36--|
--42--42--42----42----42----42--42--42--|
----------------------------------------|
----------40-------40----40-----40------|
----------------------------------------|
----------------------------------------|


                                         
--36---------36-------36----36--36--36--|
--42--42--42----42----42----42--42--42--|
----------------------------------------|
--49------40-------40----40-----40------|
----------------------------------------|
----------------------------------------|


                                         
--36---------36-------36----36--36--36--|
--42--42--42----42----42----42--42--42--|
----------------------------------------|
----------40-------40----40-----40------|
----------------------------------------|
----------------------------------------|


                                         
--36---------36-------36----36--36--36--|
--42--42--42----42----42----42--42--42--|
----------------------------------------|
--49------40-------40----40-----40------|
----------------------------------------|
----------------------------------------|


                                               
--36---------36-------36----36----36-36-36-36-|
--42--42--42----42----42----42----------------|
----------------------------------------------|
----------40-------40----40-40-40-45-45-47-47-|
----------------------------------------------|
----------------------------------------------|


                                                                                
--36---------36-------36----36--36--36--|--36---------36-----36----36--36--36--|
------59--59----59----59----59--59--59--|--59--59--59----59--59----59--59--59--|
----------------------------------------|--------------------------------------|
--49------40-------40----40-----40------|----------40-----------40-----40------|
----------------------------------------|--------------------------------------|
----------------------------------------|--------------------------------------|


                                         
--36---------36-------36----36--36--36--|
--42--42--42----42----42----42--42--42--|
----------------------------------------|
--49------40-------40----40-----40------|
----------------------------------------|
----------------------------------------|


                                         
--36---------36-------36----36--36--36--|
--42--42--42----42----42----42--42--42--|
----------------------------------------|
----------40-------40----40-----40------|
----------------------------------------|
----------------------------------------|


                                         
--36---------36-------36----36--36--36--|
------59--59----59----59----59--59--59--|
----------------------------------------|
--49------40-------40----40-----40------|
----------------------------------------|
----------------------------------------|


                                         
--36---------36-----36----36----36--36--|
--59--59--59----59--59----59----59--59--|
----------------------------------------|
----------40-----------40----40-40--40--|
----------------------------------------|
----------------------------------------|


                                         
--36---------36-------36----36--36--36--|
--42--42--42----42----42----42--42--42--|
----------------------------------------|
--49------40-------40----40-----40------|
----------------------------------------|
----------------------------------------|


                                         
--36---------36-------36----36--36--36--|
--42--42--42----42----42----42--42--42--|
----------------------------------------|
----------40-------40----40-----40------|
----------------------------------------|
----------------------------------------|


                                         
--36---------36-------36----36--36--36--|
--42--42--42----42----42----42--42--42--|
----------------------------------------|
--49------40-------40----40-----40------|
----------------------------------------|
----------------------------------------|


                                         
--36---------36-------36----36--36--36--|
--42--42--42----42----42----42--42--42--|
----------------------------------------|
----------40-------40----40-----40------|
----------------------------------------|
----------------------------------------|


                                         
--36---------36-------36----36--36--36--|
--42--42--42----42----42----42--42--42--|
----------------------------------------|
--49------40-------40----40-----40------|
----------------------------------------|
----------------------------------------|


                                         
--36---------36-------36----36--36--36--|
--42--42--42----42----42----42--42--42--|
----------------------------------------|
----------40-------40----40-----40------|
----------------------------------------|
----------------------------------------|


                                         
--36---------36-------36----36--36--36--|
--42--42--42----42----42----42--42--42--|
----------------------------------------|
--49------40-------40----40-----40------|
----------------------------------------|
----------------------------------------|


                                         
--36---------36-------36----36--36--36--|
--42--42--42----42----42----42--42--42--|
----------------------------------------|
----------40-------40----40-----40------|
----------------------------------------|
----------------------------------------|


                                         
--36---------36-------36----36--36--36--|
--42--42--42----42----42----42--42--42--|
----------------------------------------|
--49------40-------40----40-----40------|
----------------------------------------|
----------------------------------------|


                                             
--36---------36-------36----36--36-36-------|
--42--42--42----42----42----42--42-42-------|
--------------------------------------------|
----------40-------40-45-47-45--40-40-40-40-|
----------------------------47--------------|
--------------------------------------------|


                                                                                
--36---------36-------36----36--36--36--|--36---------36-----36----36--36--36--|
------59--59----59----59----59--59--59--|--59--59--59----59--59----59--59--59--|
----------------------------------------|--------------------------------------|
--49------40-------40----40-----40------|----------40-----------40-----40------|
----------------------------------------|--------------------------------------|
----------------------------------------|--------------------------------------|


                                         
--36---------36-------36----36--36--36--|
--42--42--42----42----42----42--42--42--|
----------------------------------------|
--49------40-------40----40-----40------|
----------------------------------------|
----------------------------------------|


                                         
--36---------36-------36----36--36--36--|
--42--42--42----42----42----42--42--42--|
----------------------------------------|
----------40-------40----40-----40------|
----------------------------------------|
----------------------------------------|


                                         
--36---------36-------36----36--36--36--|
------59--59----59----59----59--59--59--|
----------------------------------------|
--49------40-------40----40-----40------|
----------------------------------------|
----------------------------------------|


                                                   
--36---------36-----36----36----36-36-------------|
--59--59--59----59--59----59----59-59-------------|
--------------------------------------------------|
----------40-----------40----40-40-40-40-47-45-47-|
--------------------------------------------------|
--------------------------------------------------|


                                         
--36---------36-------36----36--36--36--|
--42--42--42----42----42----42--42--42--|
----------------------------------------|
--49------40-------40----40-----40------|
----------------------------------------|
----------------------------------------|


                                               
--36---------36-------36----36----36----------|
--42--42--42----42----42----------------------|
----------------------------------------------|
----------40-------40----40----------40-40-40-|
-------------------------49-45-47-49----------|
----------------------------------------------|


                                         
--36---------36-------36----36--36--36--|
--42--42--42----42----42----42--42--42--|
----------------------------------------|
--49------40-------40----40-----40------|
----------------------------------------|
----------------------------------------|


                                         
--36---------36-------36----36--36--36--|
--42--42--42----42----42----42--42--42--|
----------------------------------------|
--49------40-------40----40-----40------|
----------------------------------------|
----------------------------------------|


                                         
--36---------36-------36----36--36--36--|
--42--42--42----42----42----42--42--42--|
----------------------------------------|
--49------40-------40----40-----40------|
----------------------------------------|
----------------------------------------|


                                         
--36---------36-------36----36--36--36--|
--42--42--42----42----42----42--42--42--|
----------------------------------------|
--49------40-------40----40-----40------|
----------------------------------------|
----------------------------------------|


                                         
--36---------36-------36----36--36--36--|
--42--42--42----42----42----42--42--42--|
----------------------------------------|
--49------40-------40----40-----40------|
----------------------------------------|
----------------------------------------|


                                               
--36---------36-------36----36----36-36-------|
--42--42--42----42----42----42----42-42-------|
----------------------------------------------|
--49------40-------40-40-40-40-40-45-45-47-47-|
----------------------------------------------|
----------------------------------------------|


                                         
--36---------36-------36----36--36--36--|
------42--42----42----42----42--42--42--|
----------------------------------------|
--49------40-------40----40-----40------|
----------------------------------------|
----------------------------------------|


                                         
--36---------36-------36----36--36------|
--42--42--42----42----42----42--42--42--|
----------------------------------------|
----------40-------40----40-----40------|
----------------------------------------|
----------------------------------------|


                                         
--36---------36-------36----36--36--36--|
------42--42----42----42----42--42--42--|
----------------------------------------|
--49------40-------40----40-----40------|
----------------------------------------|
----------------------------------------|


                                           
--36---------36-------36----36----36------|
--42--42--42----42----42----42----42--42--|
------------------------------------------|
----------40-------40----40-40-40-----40--|
------------------------------------------|
------------------------------------------|


                                         
--36---------36-------36----36--36--36--|
------42--42----42----42----42--42--42--|
----------------------------------------|
--49------40-------40----40-----40------|
----------------------------------------|
----------------------------------------|


                                         
--36---------36-------36----36--36------|
--42--42--42----42----42----42--42--42--|
----------------------------------------|
----------40-------40----40-----40------|
----------------------------------------|
----------------------------------------|


                                         
--36---------36-------36----36--36--36--|
------42--42----42----42----42--42--42--|
----------------------------------------|
--49------40-------40----40-----40------|
----------------------------------------|
----------------------------------------|


                                         
--36---------36-------36----36--36------|
--42--42--42----42----42----42--42--42--|
----------------------------------------|
----------40-------40----40-----40------|
----------------------------------------|
----------------------------------------|


                                         
--36---------36-------36----36--36--36--|
------42--42----42----42----42--42--42--|
----------------------------------------|
--49------40-------40----40-----40------|
----------------------------------------|
----------------------------------------|


                                         
--36---------36-------36----36--36------|
--42--42--42----42----42----42--42--42--|
----------------------------------------|
----------40-------40----40-----40------|
----------------------------------------|
----------------------------------------|


                                         
--36---------36-------36----36--36--36--|
------42--42----42----42----42--42--42--|
----------------------------------------|
--49------40-------40----40-----40------|
----------------------------------------|
----------------------------------------|


                                               
--36---------36-------36----36----36----------|
--42--42--42----42----42----42----42-42-------|
----------------------------------------------|
----------40-40-40-40-45-40-47-40-45-40-40-40-|
----------------------------------------------|
----------------------------------------------|


                                                                                
--36---------36-------36----36--36--36--|--36---------36-----36----36--36--36--|
------59--59----59----59----59--59--59--|--59--59--59----59--59----59--59--59--|
----------------------------------------|--------------------------------------|
--49------40-------40----40-----40------|----------40-----------40-----40------|
----------------------------------------|--------------------------------------|
----------------------------------------|--------------------------------------|


                                         
--36---------36-------36----36--36--36--|
--42--42--42----42----42----42--42--42--|
----------------------------------------|
--49------40-------40----40-----40------|
----------------------------------------|
----------------------------------------|


                                         
--36---------36-------36----36--36--36--|
--42--42--42----42----42----42--42--42--|
----------------------------------------|
----------40-------40----40-----40------|
----------------------------------------|
----------------------------------------|


                                         
--36---------36-------36----36--36--36--|
------59--59----59----59----59--59--59--|
----------------------------------------|
--49------40-------40----40-----40------|
----------------------------------------|
----------------------------------------|


                                                 
--36---------36-----36----36----36-36-----------|
--59--59--59----59--59----59----59-59-----------|
------------------------------------------------|
----------40-----------40----40-40-40-40--45-40-|
------------------------------------------------|
------------------------------------------------|


                                         
--36---------36-------36----36--36--36--|
--42--42--42----42----42----42--42--42--|
----------------------------------------|
--49------40-------40----40-----40------|
----------------------------------------|
----------------------------------------|


                                               
--36---------36-------36----36----36----------|
--42--42--42----42----42----------------------|
----------------------------------------------|
----------40-------40----40-40-40----40-40-40-|
----------------------------45-47-------------|
----------------------------------------------|


                                         
--36---------36-------36----36--36--36--|
--42--42--42----42----42----42--42--42--|
----------------------------------------|
--49------40-------40----40-----40------|
----------------------------------------|
----------------------------------------|


                                         
--36---------36-------36----36--36--36--|
--42--42--42----42----42----42--42--42--|
----------------------------------------|
--49------40-------40----40-----40------|
----------------------------------------|
----------------------------------------|


                                         
--36---------36-------36----36--36--36--|
--42--42--42----42----42----42--42--42--|
----------------------------------------|
--49------40-------40----40-----40------|
----------------------------------------|
----------------------------------------|


                                         
--36---------36-------36----36--36--36--|
--42--42--42----42----42----42--42--42--|
----------------------------------------|
--49------40-------40----40-----40------|
----------------------------------------|
----------------------------------------|


                                           
--36---------36-------36-36-36-36-36--36--|
--42--42--42----42----42----42----42--42--|
------------------------------------------|
--49------40-------40----------40-----40--|
------------------------------------------|
------------------------------------------|


                                                                          
--36---------36-------36----36----36-36-------|--36----36----36----36----|
--42--42--42----42----42----42----42-42-------|--------------------------|
--40--40--------------------------------------|--------------------------|
--49------40-------40-40-40-40-40-45-45-47-47-|--49----------------------|
----------------------------------------------|--------------------------|
----------------------------------------------|--------------------------|


                                                      
--36----36----36----36----|--36----36----36----36----|
--------------------------|--------------------------|
--------------------------|--------------------------|
--------------------------|--------------------------|
--------------------------|--------------------------|
--------------------------|--------------------------|


                                                                                
--36----36----36----36------|--36----36----------36-------36----36----36----36-|
----------------------------|--44-44-44-44-44-44-44-44-44-44-44-44-44-44-44-44-|
--------------40----40--40--|--49----------40----------------------40----------|
----------------------------|--------------------------------------------------|
----------------------------|--------------------------------------------------|
----------------------------|--------------------------------------------------|


                                                   
--36----36----------36-------36----36----36----36-|
--44-44-44-44-44-44-44-44-44-44-44-44-44-44-44-44-|
--------------40----------------------40----------|
--------------------------------------------------|
--------------------------------------------------|
--------------------------------------------------|


                                                   
--36----36----------36-------36----36----36----36-|
--44-44-44-44-44-44-44-44-44-44-44-44-44-44-44-44-|
--------------40----------------------40----------|
--------------------------------------------------|
--------------------------------------------------|
--------------------------------------------------|


                                                   
--36----36----------36-------36----36----36----36-|
--44-44-44-44-44-44-44-44-44-44-44-44-44-44-44-44-|
--------------40----------------------40----------|
--------------------------------------------------|
--------------------------------------------------|
--------------------------------------------------|


                                                                             
--36----36----------36-------36----36----36----36-|--------------------|----|
--44-44-44-44-44-44-44-44-44-44-44-44-44-44-44-44-|--------------------|----|
--------------40----------40-40-40-40-40-40-40-40-|--49----------------|----|
--------------------------------------------------|--------------------|----|
--------------------------------------------------|--------------------|----|
--------------------------------------------------|--------------------|----|


                                         
--36---------36-------36----36--36--36--|
------42--42----42----42----42--42--42--|
----------------------------------------|
--49------40-------40----40-----40------|
----------------------------------------|
----------------------------------------|


                                         
--36---------36-------36----36--36------|
--42--42--42----42----42----42--42--42--|
----------------------------------------|
----------40-------40----40-----40------|
----------------------------------------|
----------------------------------------|


                                         
--36---------36-------36----36--36--36--|
------42--42----42----42----42--42--42--|
----------------------------------------|
--49------40-------40----40-----40------|
----------------------------------------|
----------------------------------------|


                                         
--36---------36-------36----36--36------|
--42--42--42----42----42----42--42--42--|
----------------------------------------|
----------40-------40----40-----40------|
----------------------------------------|
----------------------------------------|


                                         
--36---------36-------36----36--36--36--|
------42--42----42----42----42--42--42--|
----------------------------------------|
--49------40-------40----40-----40------|
----------------------------------------|
----------------------------------------|


                                         
--36---------36-------36----36--36------|
--42--42--42----42----42----42--42--42--|
----------------------------------------|
----------40-------40----40-----40------|
----------------------------------------|
----------------------------------------|


                                         
--36---------36-------36----36--36--36--|
--42--42--42----42----42----42--42--42--|
----------------------------------------|
--49------40-------40----40-----40------|
----------------------------------------|
----------------------------------------|


                                         
--36---------36-------36----36--36--36--|
--42--42--42----42----42----42--42--42--|
----------------------------------------|
--49------40-------40----40-----40------|
----------------------------------------|
----------------------------------------|


                                         
--36---------36-------36----36--36--36--|
--42--42--42----42----42----42--42--42--|
----------------------------------------|
--49------40-------40----40-----40------|
----------------------------------------|
----------------------------------------|


                                         
--36---------36-------36----36--36--36--|
--42--42--42----42----42----42--42--42--|
----------------------------------------|
--49------40-------40----40-----40------|
----------------------------------------|
----------------------------------------|


                                           
--36---------36-------36-36-36-36-36--36--|
--42--42--42----42----42----42----42--42--|
------------------------------------------|
--49------40-------40----------40-----40--|
------------------------------------------|
------------------------------------------|


                                               
--36---------36-------36----36----36-36-------|
--42--42--42----42----42----42----42-42-------|
--40--40--------------------------------------|
--49------40-------40-40-40-40-40-45-45-47-47-|
----------------------------------------------|
----------------------------------------------|


                                         
--36---------36-------36----36--36--36--|
------42--42----42----42----42--42--42--|
----------------------------------------|
--49------40-------40----40-----40------|
----------------------------------------|
----------------------------------------|


                                           
--36---------36-------36----36----36------|
--42--42--42----42----42----42----42--42--|
------------------------------------------|
----------40-40-40-40-40-40-40-40-40--40--|
------------------------------------------|
------------------------------------------|


                                                   
--------------------------------------------------|
-----51----51----45----45-47-45-47-45-47-45-47-45-|
--49----59----59----59-51-49-51-59-49-51-59-49-49-|
--------------------------------------------------|
--36-36-36-36-36-36-36-36-36-36-36-36-36-36-36-36-|
--------------------------------------------------|


                                                   
--40-40-40-40-47-40-40-47-45-47-45-47-40-40-47-45-|
-----51----51----45----------------------51----51-|
--49----59----59----59----49----49-49-59----59----|
--------------------------------------------------|
--36-36-36-36-36-36-36-36-36-36-36-36-36-36-36-36-|
--------------------------------------------------|


                                                   
--40-40-40-40-47-40-40-47-45-47-45-47-40-40-47-45-|
-----51----51----45----------59----------49-49----|
--49----59----59----59----51----51-59-51----------|
--------------------------------------------------|
--36-36-36-36-36-36-36-36-36-36-36-36-36-36-36-36-|
--------------------------------------------------|


                                                        
--40-40-40-40-40-40-40-40-40----------40----|----|----||
--------------------------------------49----|----|----||
--47-45-47-45-47-45-47-45-47-45-47----51----|----|----||
--------------------------------------59----|----|----||
--------------------------------------------|----|----||
-----------------------------------40-------|----|----||

Fuente original ATAME [www.atame.org]
Colaborador original: c|-|risti/- [acorde_49@hotmail.com]

Fuente: tusacordes.com