a b c d e f g h i j k l m n o p q r s t u v w x y z 0-9

Guitarras Blancas

Enanitos Verdes

			
Esta rola hay que escucharla y agarrar bien los tiempos
para que suene perfecta ahi la tienes...

              |Intro       |Una guitarra.....  
              |Cm          |Cm
G|----8h10-8--|------------|------------||
D|------------|------------|------------||
A|------------|3-3--3------|3-3--3------||
E|------------|-------3--5-|-------3-5--||
              *  8 veces   *   7 veces   *
  
  Por favor...
  Bb                     Cm 
G|------------|---------|------------|------|
D|------------|---------|------------|---3-1|
A|1-1-1s13-13s8s13-13s8s|3-3-----3-3-3-3----|
E|------------|---------|----3-5-----|------|

  Bb                       Cm
G|------------|-----------|------------|-------|
D|------------|-----------|------------|-------|
A|1-1-1s13-13-13-13-13s20s|3-3-1---3-1-1-3-----|
E|------------|-----------|------3-----|---3-5-|

  Es uno de esos días...
  Cm
G|------------|------------|------------|------8h10-8|
D|------------|-------1-3--|------------|------------|
A|3-3--3------|3-3--3------|3-3--3------|3-3--3------|
E|-------3-5--|------------|-------3-5--|------------|
 *   2 veces  *

G|------------|------------||
D|------------|-------3-1--||
A|3-3--3------|3-3--3------||
E|-------3-5--|------------||

  Porfavor.....
  Bb                      Cm
G|------------|----------|------------|----------|
D|------------|----------|------------|----------|
A|1-1-1-1s13-13-13-13s20s|3-3-1-3-1-1-3-3-1--3-2-|
E|------------|----------|-----3------|----3-----|

  Bb                    Cm 
G|------------|--------|------------|--------|
D|------------|--------|------------|--------|
A|1-1-1s13-13-13-13-13s|3-3--3-----3-3-3-2-1-|
E|------------|--------|-------3-5--|--------|

  No hablen....
  G#m              Bb               Cm
G|----------------|----------------|------------|-------|
D|----------------|----------------|------------|-------|
A|----------------|----------------|3-3-1-3---3-3-1-3---|
E|4-4-4-4-4-4-4-4s|6-6-6-6-6-6-6-6s|-----3-3-3--|--3-3-3|
 *          3  veces               *

  No es un escapismo...
  Cm
G|------------|------------|------------|------8h10-8|
D|------------|-------1-3--|------------|------------|
A|3-3--3------|3-3--3------|3-3--3------|3-3--3------|
E|-------3-5--|------------|-------3-5--|------------|
                           *  2  veces  * 

G|------------|------------||
D|------------|-------1-3--||
A|3-3--3------|3-3--3------||
E|-------3-5--|------------||

  Por favor..
  Bb                 Cm           Bb                
G|------------------|------------|-----------------|
D|------------------|---------3-1|-----------------|
A|1-1-1s13-13-13-13s|3-3---3-3---|1-1-1-13-13-13-13|
E|------------------|---5-3------|-----------------|

  Cm                G#m              Bb
G|-----------------|----------------|----------------|
D|-----------------|----------------|----------------|
A|3-3-1-1-3-3-3-2-1|----------------|----------------|
E|-----3-----------|4-4-4-4-4-4-4-4s|6-6-6-6-6-6-6-6s|
                   *           3 veces               *
   Solo de Guitarra 
  Cm                     G#m              Bb 
G|------------|---------|----------------|----------------|
D|------------|---------|----------------|----------------|
A|3-3--3------|3-3-3-2-1|----------------|----------------|
E|-------3-5--|---------|4-4-4-4-4-4-4-4s|6-6-6-6-6-6-6-6s|
 *  3 veces   *         *           4   veces             * 
 
  Solo de Bajo                        | Solo de sint   
  Cm                                    |Em 
G|------------|------------|------------|------------|
D|------------|--13--------|-------13---|------------|
A|3s15-15-15-13----13-13h15-15-13----13-|7-7--7------|
E|------------|15----------|-----15-----|-------7-9--|
                                        *   6 veces  *
  Solo de sax 
  Cm           G#m          Bb           Cm
G|------------|------------|------------|------------|
D|------------|------------|------------|------------|
A|3--3--------|------------|------------|3--3--------|
E|-----3--5---|44-44-44-44s|66-66-66-66s|-----3-5----|
 *  4 veces   *       3  veces          *   8 veces  *

 - Repite la progresión de G#m y Bb hasta el final...
 
 Dudas, preguntas o comentarios escribe a: laburka@yahoo.com.mx

Fuente original ATAME [www.atame.org]
Colaborador original: Israel Sánchez Padilla [laburka@yahoo.com.mx]

Fuente: tusacordes.com