a b c d e f g h i j k l m n o p q r s t u v w x y z 0-9

Guitarras Blancas

Enanitos Verdes

			
Intro....
fig 1

G---------------
D--1-h-3--1-----
A---------------        
E---------------

despues del intro va asi casi toda la cancion
fig 2
G----------------------------------------------
D-------------------1--3-------------------------
A--3--3---1--3----3---------------------------------
E-------3---------------------------------------


despues de donde dice es lo mas honesto que yo ahora puedo escuchar es asi..... 
y luego se vuelve ala figura 2.

fig 3 y 4
G-----------------------------------------------
D-----------------------------------------------
A-----3--1-----3--1-------1----3---3---1--3------
E--3--------3----------1-------------3-----------


G-----------------------------------------------
D-----------------------------------------------
A-----3--1-----3--1-------1----3---3---1--3-----
E--3--------3----------1-------------3-----------


en la parte que dice y no hablen ahora de nueva york estare en roma o disney world 
yo solo quiero que nos dejen bailar va asi..

fig 5
G------------------------------------------------------
D-------------------------------------------------1---3
A--------------------------------------3--3--1---3-----
E--3-33--5-55--3-33--5-55--3-33--5-55------3---3-------

y toda la rola sigue con estos mismos cuadros solo escuchala y sabras como meterlos 
y aqui esta el solo de bajo que es lo que faltaba.



G----------------------------------------------------
D--------1-----------1-------------1-----------1-----
A--3-1-----1-3--3-1-----1-3--3-1-----1-3--3-1----1-3-
E------3-----------3-------------3------------3------




G---------------------------------------------------
D-------1-----------1-------------1-----------1-----
A-3-1-----1-3--3-1-----1-3--3-1-----1-3--3-1----123-
E-----3-----------3-------------3------------3------



Y SE SIGUE CON LA FIGURA 1 HASTA EL FINAL 

DUDAS A MI MAIL

Fuente original ATAME [www.atame.org]
Colaborador original: Rogelio Burciaga [rogelio_burciaga@yahoo.com]

Fuente: tusacordes.com