a b c d e f g h i j k l m n o p q r s t u v w x y z 0-9

Guitarras Blancas

Enanitos Verdes

			
Notación: x - Rake
          ^ - Bending
          ~ - sustain
          / - slide
         // - Tremolo Bar
          * - Ligado

La cancion solo lleva 4 tonos como patron principal
hay una variacion de 1 tono a la hora de cambiar por
el solo de acordeon, he aquí las posturas principales:

     Cm     A#    G#    A#    Em --- este E va a la hora del cambio de tono
E-----8-----6-----4-----6-----12--I
B-----8-----6-----4-----6-----12--I
G-----8-----7-----5-----7-----12--I
D----10-----8-----6-----8-----14--I
A-----------8-----6-----8---------I
E-----------6-----4-----6---------I

SEGUNDA ESTROFA
Es uno de esos dias.....
E----------------------------------I
B-------------------x8-10-10^------I
G----------------x8------------8~//I
D-------------x8-------------------I
A----------------------------------I
E----------------------------------I

al terminar el primer coro..
E----------------------I
B----------------------I
G----------/--8--------I
D----------/--8-//-----I
A----------------------I
E----------------------I

Solo:
E----------------------------------------I
B---------x16-18^--16--------------------I
G-----x16-------------17~-/12------------I
D-x16-------------------------11/-17-~//-I
A----------------------------------------I
E----------------------------------------I

E--13/15----------15-15*-16-15----18-16*-15-I
B--------16----16--------------16-----------I
G-----------17------------------------------I
D-------------------------------------------I
A-------------------------------------------I
E-------------------------------------------I

E----------15-15*-16-15----18-16*-15----------15-15*I6-15-----18-16*-15-I
B-16----16--------------16-----------16----16-------------16------------I
G----17---------------------------------17------------------------------I
D-----------------------------------------------------------------------I
A-----------------------------------------------------------------------I
E-----------------------------------------------------------------------I

E----------15-15*-16-15-----------------I
B-16----16--------------16//------------I
G----17---------------------------------I
D---------------------------------------I
A---------------------------------------I
E---------------------------------------I

transcripcion hecha por No0dles
( alguna duda, sugerencia a [d197@hotmail.com]
con el maestro en la lira sin lugar a dudas.....

Fuente original ATAME [www.atame.org]
Colaborador original: daniel ramirez peña [daneri2@latinmail.com]

Fuente: tusacordes.com