a b c d e f g h i j k l m n o p q r s t u v w x y z 0-9

Eterna Soledad

Enanitos Verdes

C
F
Am
Dm
G
E
Em
A7
			
B|-----------------------------------
G|-/12-12-9-9-5-2/5-12-12-9-9-5-5/9--
D|-----------------------------------

e|--------------------------------------------
B|-----13/15-15/17-13-------------------------
G|-/12----------------12-12/14-12-12-9-5/7-5--
D|--------------------------------------------

e|----------------------------------------
B|-----13/15-15/17-13---------------------
G|-/12----------------12-12/14-12-12-9-5--
D|----------------------------------------
            C               F
Eterna soledad, el tiempo danza en la madrugada,
               C                       F
Y no podés dormir si están todas las luces apagadas.
        Am        C           Dm           G         Am C
Ya se fué el tren y esta calle nunca más será igual.
       Dm              G          F          E        Am
Aprendiste a tener miedo pero hay que correr el riesgo
          F        G       C   F C F
de levantarse y seguir cayendo.
B|---------------
G|-/12-12-9-9-5--
D|---------------
                    C                    F         G
No hay nada que perder cuando ya nada queda en el vaso.
             C                        F         G
Y no podés saber que fuerte es el poder de un abrazo.
        Am        C             Dm           G       Am   C
Ya se fue el tren y esta calle nunca más será igual.
      Dm              G           F          E       Am  C
Aprendiste a tener miedo pero hay que correr el riesgo
         F          E     Am  C
de levantarse y seguir cayendo.
      F          E       Am    C           F          G      C
Pero hay que correr el riesgo de levantarse y seguir cayendo.
      Am    B7                                     Em
Yo lo sé que nadie te dijo para que todos están aquí.
    Am#    A7  Dm                              F         G
Yo sé la soledad te da un cierto confort, no te deja mirar.

            C F G          C                       F           G
Eterna soledad, eterna soledad... sé que la gente busca tu consejo.
e|----/15-15-15-15-12-12-------/15-15/17-15-12-8--
B|-/13-------------------13-13--------------------
G|------------------------------------------------
F           E       Am   C        F         E      Am  C
Hay que correr el riesgo de levantarse y seguir cayendo.
e|---------------15-13-8--------------15/17-17-15-12-8--
B|--8-8/10-10/13---------8-8/10-10/13-------------------
G|------------------------------------------------------
      F          E       Am            F          G     C
Pero hay que correr el riesgo de levantarse y seguir cayendo.
e|----------------------------------------------------------15-15-12-12-8--
B|--8-8/10-10/13---------------------------------------5/13~---------------
G|-------------------------------------------------------------------------

Fuente: tusacordes.com