a b c d e f g h i j k l m n o p q r s t u v w x y z 0-9

Eterna Soledad

Enanitos Verdes

			
Eterna soledad
Bajo

  No hay nada que perder?
G---------------------------------------------------
D---------------3----5-----------------------3----5-
A--3---5-3------------------3-------5-3-------------
E---------------------------------------------------

 Ya se fue el tren?
G---------------------------------------------------
D---------------------------------------------------
A-----2-3---3-5----5--------------------------------
E-5------------------3--4---------------------------

Hay que correr el riesgo?
G---------------------------------------------------
D---------------------------------------------------
A---------2-2-2-2-3-3-3-3------------2-2-2-2-----3--
E-5-5-5-5-----------------3-3-3-3-------------------

Yo lo se?
G----------------------------------------------------
D--------------------2-2----2----2--------------0-0-0
A-3-3-3-3---2-2-2-2-------2----2----2--1-1--0-0------
E----------------------------------------------------


G----------------------------------------------------
D----------------------------------------------------
A----------3-3-5-5-----------------------------------
E--3-3-3-3-------------------------------------------

 Eterna soledad?
G----------------------------------------------------
D---------------------3-3-5-5------------------------
A---3-3------3---3-3---------------------------------
E----------5---5-------------------------------------

SAnti valderrama

Fuente original ATAME [www.atame.org]
Colaborador original: santiago valderrama gallego [sansantio@hotmail.com]

Fuente: tusacordes.com