a b c d e f g h i j k m n o p q r s t x v w y z 0-9

El Guerrero

Enanitos Verdes

			
bueno el intro tocalo con wah y deley y se escucha chido

1----5-7-9-7-5-----5-7-9-7-5-3--5-7-9-7-5-3---5-7-9-7-5-----
2--7-----------7-7-------------7------------7------------7--
3-----------------------------------------------------------

1--7-------7---
2----7-----7---
3------7---7---

esto con guitarra limpia los acordes son triadas

 Bm                                   
algun tiempo atras   
1--7----------------------------------
2--7----------------3/5H7-------------
3--7----------------------6*7-4-------

Em
en cualquier lugar  
1--7-----------------3/5-3-0-3-2-----
2--8---------------------------------
3--9---------------------------------

A  casilla #1
murio una mujer y el unico testigo fue el viento
1--5--------------------------------------7--7--7--7------
2--5----------------------3/5/7-------------7--7--7--7----
3--6-------------2/4H7-6----------------------7--7--7--7---
4----------------------------------------------------------

Bm                                  Em
el moro que bajo de la luna me dijo sino el amor tendras la
           A                (CASILLA #1
la fortuna 2 cosas distintas el sueño y el destino final 

coro:estos ya son acordes completos
      G              A               Bm
ya se marcho no volvera en buen guerrero no vuelve la vista

atras 


a hora el solo:

1---------------------------------------7-9-10/12-10-9------
2----------------8/10------------7-8-10---------------------
3--------7h9*7-9------9-7--6-7-9----------------------------
4----7-9----------------------------------------------------
5--9--------------------------------------------------------
6-----------------------------------------------------------

1-----------------------5-7/14-14-14-14-12-10h1210----------
2--10-7--777777/5-5-5-7----------------------------12-10----
3-----------------------------------------------------------
4-----------------------------------------------------------
5-----------------------------------------------------------
6-----------------------------------------------------------

1--10-9-10-9------------------------------------------------
2------------10------------10/12---10h1210------------------
3---------------11-9h11-9-------------------11-9------------
4-----------------------------------------------------------
5-------------------------------------------------7/9-7-----
6-----------------------------------------------------------

y vuelves igual que cuando empiesa la voz y termina como en 
el intro con deley y wah para que no se escuche tan vacio 
suerte que se diviertan

Fuente original ATAME [www.atame.org]<br>Colaborador original: EDUARDO TOVAR PEREZ
[viper@tepic.edi.com.mx]<p>Fuente: tusacordes.com</p>