a b c d e f g h i j k l m n o p q r s t u v w x y z 0-9

El Dia Es Claro

Enanitos Verdes

			
Esta cancion de los enanitos esta muy bonita
y pues aqui esta con sus punteos correspondientes.
Quiero dedicarla con mucho cariño a Normita Vega.
Saludos a todos en Cd. Juárez.

se toca punteando en los siguientes acordes

intro x 2
         A5              E/A             Dsus2		  D5
e||-------0------||-------0------||--------0------||--------0------
B||----0----0----||---0-----0----||----3-----3----||----3-----3----
G||------2----2--||-----1-----1--||------2-----2--||------2-----2--
D||--2-----------||--2-----------||--0------------||--3------------
A||--------------||--------------||---------------||---------------
E||--------------||--------------||---------------||---------------

	 A5			E/A
e||---------0--------||---------0--------||
B||----0--------0----||----0--------0----||
G||-------2--------2-||-------1--------1-||
D||--2---------------||--2---------------||
A||------------------||------------------||
E||------------------||------------------||
          Y de repente yo sentí
	Dsus2			D5
e||---------0--------||---------0--------||
B||----3--------3----||----3--------3----||
G||-------2--------2-||-------2--------2-||
D||--0---------------||--3---------------||
A||------------------||------------------||
E||------------------||------------------||
como si nunca hubiera amado.
	 A5			E/A
e||---------0--------||---------0--------||
B||----0--------0----||----0--------0----||
G||-------2--------2-||-------1--------1-||
D||--2---------------||--2---------------||
A||------------------||------------------||
E||------------------||------------------||
   Ya no hay defensas a mi alrededor
	Dsus2			D5
e||---------0--------||---------0--------||
B||----3--------3----||----3--------3----||
G||-------2--------2-||-------2--------2-||
D||--0---------------||--3---------------||
A||------------------||------------------||
E||------------------||------------------||
ya no siento miedo, el día es claro.


         F#m                   D
e||---------2--------||---------2--------||
B||----2--------2----||----3--------3----||
G||-------2--------2-||-------2--------2-||
D||--4---------------||--0---------------||
A||------------------||------------------||
E||------------------||------------------||
Mi intención es no perder

	A5		    Ddim
e||---------0--------||---------4--------||
B||----0--------0----||----3--------3----||
G||-------2--------2-||-------4--------4-||
D||--2---------------||--3---------------||
A||------------------||------------------||
E||------------------||------------------||
lo que yo quiero.
         F#m                   D
e||---------2--------||---------2--------||
B||----2--------2----||----3--------3----||
G||-------2--------2-||-------2--------2-||
D||--4---------------||--0---------------||
A||------------------||------------------||
E||------------------||------------------||
Mi ambición ahora es 

	A5		    Ddim		Bm7
e||---------0--------||---------4--------||---------2--------||
B||----0--------0----||----3--------3----||----3--------3----||
G||-------2--------2-||-------4--------4-||-------2--------2-||
D||--2---------------||--3---------------||--4---------------||
A||------------------||------------------||------------------||
E||------------------||------------------||------------------||
		darle oportunidad
            Dm9                  A5
e||---------0--------||---------0--------||
B||----3--------3----||----0--------0----||
G||-------2--------2-||-------2--------2-||
D||--3---------------||--2---------------||
A||------------------||------------------||
E||------------------||------------------||
al que esta dentro de mi desesperado,
           Adim           Bm7
e||---------5--------||---------2--------||
B||----4--------4----||----3--------3----||
G||-------5--------5-||-------2--------2-||
D||--4---------------||--4---------------||
A||------------------||------------------||
E||------------------||------------------||
porque el amor no tiene pasado,
            E              
e||---------0--------||
B||----0--------0----||
G||-------1--------1-||
D||--2---------------||
A||------------------||
E||------------------||
porque el amor no tiene pasado.

         A5              E/A             Dsus2		 D5
e||-------0------||-------0------||--------0------||--------0------
B||----0----0----||---0-----0----||----3-----3----||----3-----3----
G||------2----2--||-----1-----1--||------2-----2--||------2-----2--
D||--2-----------||--2-----------||--0------------||--3------------
A||--------------||--------------||---------------||---------------
E||--------------||--------------||---------------||---------------

la segunda parte se toca exactamente igual y para no repetir tanto solo indicare
los acordes.

A9                     E/A
   Algunas cosas me agradan realmente
            Dsus2                D5
los mundos ocultos adentro de la mente.
A9                     E/A
   Algunas cosas me molestan realmente
                 Dsus2     D5
Yo sé que alguna gente no le importa la gente.

   F#m    D           A5
Mi intención es no perder
    Ddim
lo que yo quiero.
   F#m   D         A9
Mi ambición ahora es 
   Ddim        Bm7
darle oportunidad
            D5                  A9
al que esta dentro de mi desesperado,
           Adim           Bm7
porque el amor no tiene pasado,
            E              A9-  Ddim
porque el amor no tiene pasado.

   F#m   D        A5
Mi ambición ahora es
 
   Ddim        Bm7
darle oportunidad
            D5                   A5
al que esta dentro de mi desesperado,
           Adim           Bm7
porque el amor no tiene pasado,
            E              A5     E/A    Dsus2
porque el amor no tiene pasado,  uhu... uhu...
           D5              A5-E-Dsus2-D5
porque el amor no tiene pasado...


y eso es todo, esta muy facil, nada mas escucha la cancion para medir el tiempo.

     A5	 E/A Dsus2  D5	F#m   D	 Ddim  Bm7  Adim
e||--0----0----0----0----2----2----4----2----5----||
B||--0----0----3----3----2----3----3----3----4----||
G||--2----1----2----2----2----2----4----2----5----||
D||--2----2----0----3----4----0----3----4----4----||
A||--0----0----0----0----4----x----x----2----x----||
E||--0----0----0----0----2----x----x----2----x----||

nota: D5 no es el nombre del acorde, solo lo puse para referencia ya que no recuerdo
el nombre verdadero.

Fuente original ATAME [www.atame.org]
Colaborador original: Abad Pacheco Acevedo [abadkorn@hotmail.com]

Fuente: tusacordes.com