a b c d e f g h i j k l m n o p q r s t u v w x y z 0-9

De Hoy En Mas

Enanitos Verdes

			
Bueno este es el solo de esta cancion es un poco rapido, y es lo mejorsito que lo pude sacar, 
ahi si alguien lo tiene pasemelo no,este solo lo subi por
que alguien por ahi me lo habia pedido, ok hasta luego

1----------------------------------------------------------------------------------------------
2------------------------------15----15v17-15-16-15~-15-16-15-13~~-17v1917h15------------
3-9v11-9v11-9v-9v11-9-9~~--14h12---------------------------------------------17----------
4----------------------------------------------------------------------------------------------
5----------------------------------------------------------------------------------------------
6----------------------------------------------------------------------------------------------

1-12p15h12---12p15h12--12p15h12p15h12----------------------------------------15v1715h13h12---
2---------15---------15---------------15h12--12p15h12------------------------------------------
3------------------------------------------14---------14h12p14h12--12p15vv~~-------------------
4----------------------------------------------------------------14----------------------------
5----------------------------------------------------------------------------------------------
6----------------------------------------------------------------------------------------------

1---14v-12p15h12--12p15h12---------------------------------------------------------------------
2-13------------15--------12p15h12--12p14h12----------------------------------------15h12p15---
3---------------------------------14--------14h12p14--12p14h12-----------14h12p14h12-----------
4---------------------------------------------------14--------14h12p14h12----------------------
5----------------------------------------------------------------------------------------------
6----------------------------------------------------------------------------------------------

1----------------12-22v24~~-22v24-22-22v24-21-22-21-17-----------------------------------
2-15~~15~~15~~-15------------------------------------------------------------------------------
3-------------------------------------------------------------9p11v13-11h9--11v1311h9------
4------------------------------------------------------------9--------------11-----------9p11~-
5----------------------------------------------------------------------------------------------
6----------------------------------------------------------------------------------------------

1-------------8--------8--------8--------------------------------------------------------
2------------8--------8--------8-----------------------------5p8h5-8p10h8--12-12v-12~~---
3-----10v12--10v12--10v12---10v1210h8p10--8-10----5p7-----7------9---------------
4-9p11------------------------------------------10-----5p7-------------------------------
5----------------------------------------------------------------------------------------
6----------------------------------------------------------------------------------------

yo se que estas aqui
y no te vas a ir
te quedaras a aca por mi
  
  T       T       T        T        T        T        T
1-9h4p5p7-9h4p5p7-11h4p5p7-12h4p5p7-14h4p5p7-15h4p5p7-17vh4p5p7sss//5----
2------------------------------------------------------------------------
3------------------------------------------------------------------------
4------------------------------------------------------------------------
5------------------------------------------------------------------------
6------------------------------------------------------------------------

A lo del intro luego se los mando hasta luego.

Saludos otra vez a las banda
Oso, Jorge S, Adryan, Pablo, joy, L azaro, Norma, y en especial a Elisha que 
la niña que me gusta jajaj etc y los que me falten bueno hasta luego algun
 error o sugerencia yomero_84@hotmail.com

Fuente original ATAME [www.atame.org]
Colaborador original: Rogelio González Loredo [yomero_84@hotmail.com]

Fuente: tusacordes.com