a b c d e f g h i j k l m n o p q r s t u v w x y z 0-9

Dame Otra Oportunidad

Enanitos Verdes

			
Este es el intro de la canción, no se si este bien, 
si alguien se lo sabe correctamente por fa que me lo manden.


 
------------------------------------------------------------------
--------5-----3-H-5-----3----5----------------5/6-5--------------
--------5-----------5-------------5-----5-5-5----------5----------
--------5-------------5----------------------------------5--------
------------------------------------------------------------------
------------------------------------------------------------------


------------------------------------------------------------------
--------------3-H-5------3---5------------------------------------
--------------------5------------4/5--5---------------------------
----------------------5-------------------------------------------
------------------------------------------------------------------
------------------------------------------------------------------

esto es un poco mas rápido
-----------------5--8/10--7-----5H7-5-----5-7---------------------
----------5-6-8-----------------------5-8-------------------------
------5-7-------------------------------------7-5-----------------
------------------------------------------------------------------
------------------------------------------------------------------
------------------------------------------------------------------

----------------5--8/10--7-----7-7-8-7--3-5--3---2-2/--7--5--------
----------5-6-8----------------8-8-8-8--5-5--5---3-3---------------
------5-7----------------------------------------------------------
-------------------------------------------------------------------
-------------------------------------------------------------------
-------------------------------------------------------------------

la neta si no le entendieron paa aclaraciones 
escribanme les prometo contestarle en ese mismo dia

Fuente original ATAME [www.atame.org]
Colaborador original: ]

Fuente: tusacordes.com