a b c d e f g h i j k l m n o p q r s t u v w x y z 0-9

Dame Otra Oportunidad (traccion Acustica)

Enanitos Verdes

			
ASI VA EL INTRO: con los acordes  C Em Dm G 2 veces

e-----------------------------------------------------------------------
B--5-3/5---2/3--3/5---------3-5-5/6-5-3--5-3/5---2/3--3/5--5------------
G--5----5-4--------5-5---4/5-----------5-5----5-4--------5-5------------
D--5-------------------------------------5-----------------5------------
A-----------------------------------------------------------------------
E-----------------------------------------------------------------------

e-----------10-7---------------------------------------------
B---------------10/8-10--8-8-8-10----------------------------
G--9-9-10-12---------------------9*7-------------------------
D-----------------------------------10-----------------------
A------------------------------------------------------------
E------------------------------------------------------------

e-----------10-7-7-------------------------------------------
B-----------------13-13-15-13-12-13-12-10-12*10-10*7-7-------
G--9-9-10-12-------------------------------------------------
D------------------------------------------------------------
A------------------------------------------------------------
E------------------------------------------------------------

transcripcion original de carlos isaac cambero navarro
carlosdavids@hotmail.com

Fuente original ATAME [www.atame.org]
Colaborador original: CARLOS [carlosdavids@hotmail.com]

Fuente: tusacordes.com