a b c d e f g h i j k l m n o p q r s t u v w x y z 0-9

Dame Otra Oportunidad (traccion Acustica)

Enanitos Verdes

			
ESO ES TODO SUERTE... ESPERO LES GUSTE,O K,SALUDOS AL TIO
JOSUE, AGRESSOR AL MANZA... HAY SE VEN.


VERSO
G:|--------------------------------------------------------------
D:|- ------------------------------------------------------------
A:|-3-3-5-7-7-5-5---------2-3---------------------------------------------
E:|----------------3-5-7--------------------------------------------


ANTES DEL CORO EN LA PARTE DE PARA QUE NADIE*SE METIERA
EN TU VIDA ASI COMO ASI...

G:|--------------------------------------------------------------
D:|- ------------------------------------------------------------
A:|-----------5-5--------------------------------------------------
E:|-*-1-1-1-1------3-3-3-------------------------------------------------



G:|--------------------------------------------------------------
D:|- ------------------------------------------------------------
A:|-3-3-5-7-7-5-5---------2-3---------------------------------------------
E:|----------------3-5-7--------------------------------------------

Fuente original ATAME [www.atame.org]
Colaborador original: FIGO-MANZA [MANZA3000@HOTMAIL.COM ]

Fuente: tusacordes.com