a b c d e f g h i j k l m n o p q r s t u v w x y z 0-9

Cuanto Poder

Enanitos Verdes

			
este va despues del primer coro 
--------------------------------------------------------------
-----------2-2---------------------2-2------------------------
--------2------2----------------2------2----------------------
--2--4--------------------2--4--------------------------------
--------------------------------------------------------------
--------------------------------------------------------------


--------------------------------------------------------------
-----------2-2---------------------2-2------------------------
--------2------2----------------2------2----------------------
--2--4--------------------2--4--------------------------------
--------------------------------------------------------------
--------------------------------------------------------------


-----------12-12-9--------9-9h12-9----------9-7-7/9------------------
-------10--------------10----------------10---------12-10-12-10h12---
--9-11---------------9--------------9-11-----------------------------
---------------------------------------------------------------------
---------------------------------------------------------------------
---------------------------------------------------------------------
espero que este bien y que les guste atte. juan , un saludo al atento

Fuente original ATAME [www.atame.org]
Colaborador original: juan miguel daft punk [huevonyquepex@hotmail.com]

Fuente: tusacordes.com