a b c d e f g h i j k l m n o p q r s t u v w x y z 0-9

Cordillera

Enanitos Verdes

			
v    = Bend
//// = arrastre sobre la cuerda
T    = Taping
T   = Taping solo que lento

este es el solo es lo mejor que lo pude sacar:
si allan errore porfa escribanme a mi email.....
                       TT
------------------5---9-5--3---5------------------------------------------
--4v5v4-4-3-----5------------5---8-5-8---5--------------------------
------------5-3------------------------7---7-5-7-5---5------------------
---------------------------------------------------7---7-5-7-5------------
---------------------------------------------------------------7-7----------
-----------------------------------------------------------------------------
esto es con la plumilla
golpeando la cuerda hasta
 el doceavo traste ok
----------------------11v12-11----------11-15-15-13-------15-15-17-17-15------17-17-19-
-5////////////////-12----------12-10-12-------------15-13---------------17-15------------------------
--------------------------------------------------------------------------------------------------------------
-------------------------------------------------------------------------------------------------------------
--------------------------------------------------------------------------------------------------------------
--------------------------------------------------------------------------------------------------------------
      T  T  T  T  T  T  T  T  T  T  T  T
-17-21-19-17-21-19-17-21-19-17-21-19-17-19///////5--
------------------------------------------------------------------------
------------------------------------------------------------------------
------------------------------------------------------------------------
------------------------------------------------------------------------
------------------------------------------------------------------------
practiquenle y veran que suena chido prectiquen los Taping
y eso del plumilleo es martillando con la plumilla rapidamente e ir deslizandola ok
dudas escribanme a :  KOBE_8_7@HOTMAIL.COM


ESTE SE SOLO SE LO DEDICO A RAUL ARCE DE LA UAS ANGOSTU
PARA QUE LO SA QUE EN EL GRUPO DE LA UAS

Fuente original ATAME [www.atame.org]
Colaborador original: MARTIN LOPEZ LEAL [KOBE_8_7]

Fuente: tusacordes.com