a b c d e f g h i j k l m n o p q r s t u v w x y z 0-9

Cordillera

Enanitos Verdes

			
esta pieza es con un bajo de 5 cuerdas, solo para q lo tengan en cuenta...
el bajo entra despues dei intro de guitarra

riff 1
g-----------------------------------------------------------/
d---------------------------------2--2----------------------/
a--------------------------------3--3------3-5-77-55-33-----/
e-5-5-3-5-5-5---3-3-1-3-3-3--5-5---5---5-5-------------77-5-/
b----5-----5-------3-----3----------------------------------/

riff 2
g----------------/
d----------------/
a----------------/
e-5-5-5--3-3-3---/
b----5------3----/

riff 3
g--------------------------------/
d--------------------------------/
a--------------------5-4-----3---/
e-1-11-11-11-1/3-33-3---5-3-5-5--/
b--------------------------------/

riff 4
g--------------/      --------------------------------/
d--------------/      -----3----5---------------------/
a--------------/ x2   -------3----5-----3-5-77-55-33--/
e-5-5-5--3-3-3-/      -1-1--3-3---5-5------------77-5-/
b----5------3--/      --------------------------------/

riff 5
g-------------/
d-------------/
a-----333-22--/
e-5-55------5-/
b-------------/


riff-1 x2
riff-2 x8
riff-1 x2
riff-2 x7
riff-3
riff-4 x2
riff-1 x2
--despues viene una parte donde solo tocan la guitarra y la bateria
riff-5
--otro silencio
riff-2 x7
riff-3
riff-4 x2
--otra parte sin bajo
riff-4
riff-1 x2

ahi esta toda la cancion, tienen que oirla bien para sacar el ritmo pero la cancion es facil y muy buena.
y para los ticos, Cuidado con JoseC...

Fuente original ATAME [www.atame.org]
Colaborador original: Mario Del Valle [mariodelvalle1234@hotmail.com]

Fuente: tusacordes.com