a b c d e f g h i j k l m n o p q r s t u v w x y z 0-9

Cordillera

Enanitos Verdes

			
hola aki les traigo el solo


SOLO:
e------------------------T--------------------------------------------------------------
b-----------------8v10-11h8v10-8--------T----------T--------------------------------
g-7v9-9-7-5---5---------------------5v7-12h7h5p7p9-12h9h7h5-T------------T----------
d-------------7-------------------------------------------------12h9h7h5p7p9-12h9h7h5---
a---------------------------------------------------------------------------------------
E---------------------------------------------------------------------------------------

e-----------------------------------------------------------------------------------
b-----------------TTTTTTTTTTTTTTTTTTTT--T--T->>>--------T---------------------------
g---------------5-777777777788889999910-10-10>>>-slide 17---------------------------
d--T--------------------------------------------or drag pick------------------------
a--12h9h7h5p7~~---------------------------------------------------------------------
E-----------------------------------------------------------------------------------

e--------------------------------------------------------------------19v21--------
b----------------------19v21-21-19------19-20v22-22-20-19------19---------------
g-19v21-19-17------19--------------21-19--------------------21-19-----------------
d---------------21-19---------------------------------------------------------------
a-----------------------------------------------------------------------------------
E-----------------------------------------------------------------------------------

  T        T        T
e-24h21h19-24h21h19-24h21h19-19sss5----
b--------------------------------------
g--------------------------------------
d--------------------------------------
a--------------------------------------
E--------------------------------------

Fuente original ATAME [www.atame.org]
Colaborador original: mario acuña [mario_aaasp@hotmail.com]

Fuente: tusacordes.com