a b c d e f g h i j k l m n o p q r s t u v w x y z 0-9

Cordillera

Enanitos Verdes

			
Esta version es en vivo y suena muy bien en la electrica 
distorcion comun espero que les guste, cualquier
duda escriban a mi mail. Viva Mexico y la viola

e |---------------------------|-----------------------|
B |----10---10-10---10---10-9-|----9---9-9---9---9*10-|
G |-9-----9-------9----9------|-9----9-----9---9------|
D |---------------------------|-----------------------|
A |---------------------------|-----------------------|
E |---------------------------|-----------------------| X2
Despues de tocar esta parte dos veces se toca esto de abajo
e |--------------------|
B |---9-10-11-10-9-8-7-|
G |-9------------------|
D |--------------------|
A |--------------------|
E |--------------------|
Sigue las repeticiones del CD en Vivo

e |-------8-7-5---|-------7-5-----|-------5---------|
B |-5-5-5-------5-|-5-5-5-----8---|---------6-6-8-8-|
G |---------------|-------------7-|-7-7-7-----------|
D |---------------|---------------|-----------------|
A |---------------|---------------|-----------------|
E |---------------|---------------|-----------------|

e |-----------------|
B |-5-------5-------|
G |---5---5---7-----|
D |-----7-------8-6-|
A |-----------------|
E |-----------------|

e |----------20-19-17----|----------19-17-------|----------17-------------|
B |-17-17-17----------17-|-17-17-17-------20----|-------------18-18-20-20-|
G |----------------------|-------------------19-|-19-19-19----------------|
D |----------------------|----------------------|-------------------------|
A |----------------------|----------------------|-------------------------|
E |----------------------|----------------------|-------------------------|

e |----------------------------------|
B |-17----------17-------------------|
G |----17----17----19-------16-17-14-|
D |-------19----------20-18----------|
A |----------------------------------|
E |----------------------------------|

Fuente original ATAME [www.atame.org]
Colaborador original: Emiliano Persia [losenanos1987@hotmail.com]

Fuente: tusacordes.com