a b c d e f g h i j k l m n o p q r s t u v w x y z 0-9

Cada Vez Que Digo Adios

Enanitos Verdes

			
Bueno esta es mi primera colaboracion y esta cancion se me hace 
muy chida lleva mucha melodia y los solos estan geniales, es de 
esas canciones que se oyen bien supremas en la acustica. 
Si tienen alguna duda por favor escribanme.

E-0-4-2-0--5-4--2-4-2-0----0-4-2-0--7-5-4-5-4-0--------
B------------------------------------------------------
G------------------------------------------------------

Esto se repite mientas la segunda guitarra hace arpegios 
con las siguientes notas
D   Sim    G    A

despues va un solo pequeño algo asi:

E--------------
B--------------
G---4-2--------
D-2-----5-4-5-5
A--------------
E--------------   Y se repite

Al final de la cancion va el siguiente solo:

E-12-11-12-9-11-7-9-5-7-4-5-2-3-0
B--------------------------------
G--------------------------------

Yal final se acaba asi:

E-12-11-12-9-11-7-9-5---5-5-4
B----------------------------
G----------------------------

Fuente original ATAME [www.atame.org]
Colaborador original: Gabriel Giovanni Larios Hernandez [jim_giovanni86@hotmail.com]

Fuente: tusacordes.com