a b c d e f g h i j k l m n o p q r s t u v w x y z 0-9

Aun Sigo Cantando

Enanitos Verdes

			
Hola a todos!!!

Aquí está por fin la última parte de esta canción que era lo único que le 
faltaba a todas las transcripciones.

Espero le entiendan y cualquier duda ya saben, bienvenidos todos los e_mails

... Que la disfruten!!!


Nota: No pongo las líricas ya que las otras transcripciones lo tienen 
      ya bien definido, OK.


Solo:

                           D                           E
... su alma es mi a--limento-o-o-o!...

e---------------------------------------------------------------------
B--------------------------------------------------7-9h12-9~-9h12-----
G----------------------------------------------7-9----------------9~--
D------------------------------------------7-9------------------------
A---------------------------------------------------------------------
E---------------------------------------------------------------------


   C                                                   D      Bb

e-------------------------------------------------------------10-10~--
B-------------7-8-8h10-8-7-7h8p9--------------------------------------
G--9-9-9~-7-9--------------------9-7-9-7------------------------------
D----------------------------------------9-7-9-7----------------------
A-------------------------------------------------9-7-----------------
E------------------------------------------------------10~------------


                  Bm             E        D

e--10-10-10-10-10-10-9~-------------------------10-12-10--------------
B------------------------7-10-10h12~-7~---10-12----------12-10-12-----
G---------------------------------------------------------------------
D---------------------------------------------------------------------
A---------------------------------------------------------------------
E---------------------------------------------------------------------


                                          A

e--10-12-10---------------------------5h7-5~~-------------------------
B-----------12-10-12-10-7-5-3-5-5h7~----------------------------------
G---------------------------------------------------------------------
D---------------------------------------------------------------------
A---------------------------------------------------------------------
E---------------------------------------------------------------------


Esta canción en su totalidad claro está va dedicada para mi querida
Jennifer M. Arias hasta Catacamas, Olancho, Honduras, C.A. y te digo:
Siempre estarás en mi corazón

Fuente original ATAME [www.atame.org]
Colaborador original: Ramón Edgardo Vásquez Florentino [zismorockerbox@yahoo.es]

Fuente: tusacordes.com