a b c d e f g h i j k l m n o p q r s t u v w x y z 0-9

Aun Sigo Cantando

Enanitos Verdes

			
Aun sigo cantando
Enanitos verdes
Por Javier Miyasato A.

El siguiente tab excelente canción ha sido hecho lo mas detallado posible, 
me tomo cierto tiempo hacerlo, espero que les ayude, estoy casi seguro de 
que no hay errores, sino, escríbanme.

  Intro en A

 e--------0------0-----
 B-----2----2---2-2----
 G----2-2--2-2-2---2---
 D---------------------
 A--0---------0--------
 E---------------------

         A                      Amaj7 
        En aquel cajon esta tu foto 
  
 e--------0------0-------------0------0-----
 B-----2----2---2-2---------2----2---2-2----
 G----2-2--2-2-2---2-------1-1--1-1-1---1---
 D------------------------------------------
 A--0---------0----------0---------0--------
 E------------------------------------------

            A7                      D
             llenandose de tierra 
 
 e--------0------0-------------2------2-----
 B-----2----2---2-2---------3----3---3-3----
 G----0-0--0-0-0---0-------2-2--2-2-2---2---
 D------------------------0--------0--------
 A--0---------0-----------------------------
 E------------------------------------------

          Dm                   A
         hace tanto que no la veo 

 e--------1------1-------------0------0-----
 B-----3----3---3-3---------2----2---2-2----
 G----2-2--2-2-2---2-------2-2--2-2-2---2---
 D--0---------0-----------------------------
 A------------------------0--------0--------
 E------------------------------------------

             B7          E  D  E
       como a vos, como a vos. 
 
 e--------2------2-------------0------2---0-
 B-----0----0---0-0---------0----0----3---0-
 G----2-2--2-2-2---2-------1-1--1-1---2---1-
 D------------------------------------0---2-
 A--2---------2-----------------------------
 E------------------------0-----------------

  A                       Amaj7
  Te acordas que tiempos aquellos 
 
 e--------0------0-------------0------0-----
 B-----2----2---2-2---------2----2---2-2----
 G----2-2--2-2-2---2-------1-1--1-1-1---1---
 D------------------------------------------
 A--0---------0----------0---------0--------
 E------------------------------------------

   A7       D 
que tiempos aquellos 
 
 e--------0------0-------------2------2-----
 B-----2----2---2-2---------3----3---3-3----
 G----0-0--0-0-0---0-------2-2--2-2-2---2---
 D------------------------0--------0--------
 A--0---------0-----------------------------
 E------------------------------------------

  Dm                          A
  en donde todo era un buen motivo 
 
 e--------1------1-------------0------0-----
 B-----3----3---3-3---------2----2---2-2----
 G----2-2--2-2-2---2-------2-2--2-2-2---2---
 D--0---------0-----------------------------
 A------------------------0--------0--------
 E------------------------------------------

     D   E    D
  para decir   te quiero. 
 
 e--2--2------0--0----2---2---2----2?-
 B--3----3----0---0---3----3---3?-3-3-
 G--2-----2---1----1--2-----2----2---2
 D--0---------2-------0---------------
 A------------------------------------ 
 E------------------------------------

  A                        Amaj7
Que le habra pasado a la vida
  
 e--------0------0-------------0------0-----
 B-----2----2---2-2---------2----2---2-2----
 G----2-2--2-2-2---2-------1-1--1-1-1---1---
 D------------------------------------------
 A--0---------0----------0---------0--------
 E------------------------------------------
 
            A7              D
que sin quererlo ya ni me acuerdo 
 
 e--------0------0-------------2------2-----
 B-----2----2---2-2---------3----3---3-3----
 G----0-0--0-0-0---0-------2-2--2-2-2---2---
 D------------------------0--------0--------
 A--0---------0-----------------------------
 E------------------------------------------

  Dm                           A 
  cuando con mi viejo iba a la cancha 

 e--------1------1-------------0------0-----
 B-----3----3---3-3---------2----2---2-2----
 G----2-2--2-2-2---2-------2-2--2-2-2---2---
 D--0---------0-----------------------------
 A------------------------0--------0--------
 E------------------------------------------

       B7    E    D  E
  a ver aquel atletico. 
 
 e--------2------2-------------0------2---0-
 B-----0----0---0-0---------0----0----3---0-
 G----2-2--2-2-2---2-------1-1--1-1---2---1-
 D------------------------------------0---2-
 A--2---------2-----------------------------
 E------------------------0-----------------

  A                        Amaj7
Te acordas del flaco Espinetta 

 e--------0------0-------------0------0-----
 B-----2----2---2-2---------2----2---2-2----
 G----2-2--2-2-2---2-------1-1--1-1-1---1---
 D------------------------------------------
 A--0---------0----------0---------0--------
 E------------------------------------------
        
    A7              D 
 cuando cantaba, todas las hojas son del viento 

 e--------0------0-------------2------2-----
 B-----2----2---2-2---------3----3---3-3----
 G----0-0--0-0-0---0-------2-2--2-2-2---2---
 D------------------------0--------0--------
 A--0---------0-----------------------------
 E------------------------------------------

   Dm                     A
Ahí toda nuestra filosofia 
 
 e--------1------1-------------0------0-----
 B-----3----3---3-3---------2----2---2-2----
 G----2-2--2-2-2---2-------2-2--2-2-2---2---
 D--0---------0-----------------------------
 A------------------------0--------0--------
 E------------------------------------------

          D    E     A
  que era solo ser rockero. 
 
 e--------1------------0-----------0-----3-2------
 B-----2----2-------0-----0-----2-----2------3-2--
 G----3-3--3-3-----1-1---1-1---2-2---2-2--------2-
 D--0---------------------------------------------
 A---------------------------0--------------------
 E---------------0--------------------------------

  D                          Cm#       
  Pero como han cambiado los tiempos 

 e--------1------1-----4------4---
 B-----2------2-------5-5----5-5--
 G----3-3----3-3-----6---6--6---6-
 D--0-------0---------------------
 A-----------------4------4-------
 E--------------------------------

        Fm#                     Cm#     Cm   
  todos luchan por mantener sus puestos 

 e------3------3--------4-------4--3--
 B-----3-3----3-3------5-5----5-5--4--
 G----3---3--3---3----6---6--6--------
 D------------------------------------
 A-----------------4-------4----4--3--
 E--3------3--------------------------

  Bm                Dm         A 
  hay muchos que ahora son Ingenieros 

 e--------2------------1------------0---------0?---
 B------3---3--------3---3--------2---2------2-2---
 G-----4-4-4-4------2-2-2-4------2-2-2-2----2---2--
 D---------------0---------------------------------
 A--2--------------------------0----------0--------
 E-------------------------------------------------
    
  D        E       A 
  que pocos quedaron rockeros. 
 
 e-------0-----------0-----------0----0------0-----
 B-----3----3------0---0-------2----2------2----2--
 G----2-2--2-2----1-1-1-1-----2-2--2-2----2-2--2-2-
 D--0----------------------------------------------
 A--------------------------0------------0---------
 E--------------0----------------------------------
  
   D                   Cm#
  Pero yo aun sigo cantando 
     
 e--------1------1-----4------4---
 B-----2------2-------5-5----5-5--
 G----3-3----3-3-----6---6--6---6-
 D--0-------0---------------------
 A-----------------4------4-------
 E--------------------------------

  Fm#            Cm#    Cm   
  y lo voy a seguir haciendo 

 e------3------3--------4-------4--3--
 B-----3-3----3-3------5-5----5-5--4--
 G----3---3--3---3----6---6--6--------
 D------------------------------------
 A-----------------4-------4----4--3--
 E--3------3--------------------------

  Bm         Dm           A
  una leccion   me dio la vida 
 
 e--------2------------1------------0---------0?---
 B------3---3--------3---3--------2---2------2-2---
 G-----4-4-4-4------2-2-2-4------2-2-2-2----2---2--
 D---------------0---------------------------------
 A--2--------------------------0----------0--------
 E-------------------------------------------------
 
             D             E       D
  tenes que hacer lo que el corazon diga. 
   
 e-------0-----------0-----------0----0------
 B-----3----3------0---0-------3-------3-3---
 G----2-2--2-2----1-1-1-1-----2-2--2----2-2--
 D--0-----------------------0--------0-------
 A-------------------------------------------
 E--------------0----------------------------

  A                            Amaj7 
  Y ayer quizas pensando en tu foto 
      
 e--------0------0-------------0------0-----
 B-----2----2---2-2---------2----2---2-2----
 G----2-2--2-2-2---2-------1-1--1-1-1---1---
 D------------------------------------------
 A--0---------0----------0---------0--------
 E------------------------------------------

    A7                  D
  por la calle te encontre andando 
  
 e--------0------0-------------2------2-----
 B-----2----2---2-2---------3----3---3-3----
 G----0-0--0-0-0---0-------2-2--2-2-2---2---
 D------------------------0--------0--------
 A--0---------0-----------------------------
 E------------------------------------------

 Dm                           A
que poco ha cambiado nuestra onda 

 e--------1------1-------------0------0-----
 B-----3----3---3-3---------2----2---2-2----
 G----2-2--2-2-2---2-------2-2--2-2-2---2---
 D--0---------0-----------------------------
 A------------------------0--------0--------
 E------------------------------------------
            D       E             D       A 
  solo cambiaron un poco nuestros cuerpos. 

 e--------1-----------0------------2---0----
 B-----3----3------0-----0-------3-3---2-----
 G----2-2--2-2----1-1---1-1----2------------
 D--0------------------------0-----0---2----
 A------------------------------------------
 E--------------0---------------------------

  D                             Cm# 
  Espero que el tiempo ahora no borre 
 
 e--------1------1-----4------4---
 B-----2------2-------5-5----5-5--
 G----3-3----3-3-----6---6--6---6-
 D--0-------0---------------------
 A-----------------4------4-------
 E--------------------------------   
 
   Fm#             Cm#   Cm 
a esta gente que tanto amo

 e------3------3--------4-------4--3--
 B-----3-3----3-3------5-5----5-5--4--
 G----3---3--3---3----6---6--6--------
 D------------------------------------
 A-----------------4-------4----4--3--
 E--3------3--------------------------

 Bm            Dm             A 
  Por que sin ellos no valgo nada 

 e--------2------------1------------0---------0?---
 B------3---3--------3---3--------2---2------2-2---
 G-----4-4-4-4------2-2-2-4------2-2-2-2----2---2--
 D---------------0---------------------------------
 A--2--------------------------0----------0--------
 E-------------------------------------------------

      D     E     D 
  Su alma es mi alimento.
 
 e--------1-----------0------------2---
 B-----3----3------0-----0-------3-3---
 G----2-2--2-2----1-1---1-1----2-------
 D--0------------------------0-----0---
 A-------------------------------------
 E--------------0----------------------

Solo:

[E-C-D-A#7-Bm-E-D-A]



e-----------------------------------10--10-9-------7-------------------        
B?7?-6´--5--7?-5---5?-4´--3--5--3------------10--7----10/12?10´--------
G----------------------------------------------------------------------        
D----------------------------------------------------------------------
A----------------------------------------------------------------------        
E----------------------------------------------------------------------
  

  FIN

Fuente original ATAME [www.atame.org]
Colaborador original: Javier Miyasato A. [javiermiy@hotmail.com]

Fuente: tusacordes.com