a b c d e f g h i j k l m n o p q r s t u v w x y z 0-9

Amores Lejanos

Enanitos Verdes

			
Soy Christian Ferrete.
Espero que la puedas tocar...Un saludo.

INTRO:  -----Dm  Am Dm  Am  G-----

e-------------------1----------------------------0---------------------
B-----0-1-3-----------3------------0-1-3-----------1-------------------
G---2-------2-0----2-------------2-------2-0---2-----------------------
D-2-------------0--------------2-------------2-------------------------
A----------------------------------------------------------------------
E----------------------------------------------------------------------
                                                      G     A       G
e---------------------1---------------------------0----3----5v-5v----3v--
B-------0-1-3-----------3----------0-1-3-----------1---3----5v-5v----3v--
G-----2-------2-0----2-----------2-------2-0---2-------3----5v-5v----3v--
D--2--------------0------------2-------------2---------------------------
A------------------------------------------------------------------------
E------------------------------------------------------------------------

      Dm
Esta tarde no pasa nada

e--------5------5---5--
B-----6------6-----6---
G--7------7-------7----
D----------------------
A----------------------
E----------------------
     Am
las calles parecen desiertas
e--------5-------5---5----
B-----5-------5-----5-----
G--5-------5-------5------
D-------------------------
A-------------------------
E-------------------------
     Dm
Carmencita se fue de viaje

      Am
y quiza nunca mas la vea

e--------5-------5---5----
B-----5-------5-----5-----
G--5-------5-------5------
D-------------------------
A-------------------------
E-------------------------
      Dm
yo mirando por la ventana

e--------5------5---5--
B-----6------6-----6---
G--7------7-------7----
D----------------------
A----------------------
E----------------------
      Am
el asfalto brillando perlas

e--------5-------5---5----
B-----5-------5-----5-----
G--5-------5-------5------
D-------------------------
A-------------------------
E-------------------------
     Dm
los lugares que frecuentaba

e--------5------5---5--
B-----6------6-----6---
G--7------7-------7----
D----------------------
A----------------------
E----------------------
         Am             G
no me atraen ni me interesan.

e-----5----7----8-----10----12-----------------------
B----------------------------------------------------
G--/5---/7---/9---/10----12--------------------------
D----------------------------------------------------
A----------------------------------------------------
E----------------------------------------------------

                  C     G                   Am
y aunque hoy no estaaaaaas,     voy planificando

e----------0------------------------
B----0h1-----1----------------------
G--------------2--------------------
D--2--------------------------------
A-----------------------------------
E-----------------------------------

            C    G                   Am
una y otra veeeeeez        amores lejanos.

e----------0------------------------
B----0h1-----1----------------------
G--------------2--------------------
D--2--------------------------------
A-----------------------------------
E-----------------------------------

                  C    G                       Am
y aunque hoy no estaaaaas,       te habro mis brazos

e----------0-----------------------------
B----0h1-----1---0h1---------------------
G--------0-----2-----2-0-----------------
D--2---------------------3---------------
A----------------------------------------
E----------------------------------------

           C     G                  Am
yo me quedareeeeee        aqui esperando


e---------------------1---------------------------0----------------------
B-------0-1-3-----------3-----------0-1-3-----------1--------------------
G-----2-------2-0----2------------2-------2-0---2------------------------
D---2-------------0-------------2-------------2--------------------------
A------------------------------------------------------------------------
E------------------------------------------------------------------------
                                                       G     A       G
e---------------------1---------------------------0----3----5v-5v----3v--
B-------0-1-3-----------3----------0-1-3-----------1---3----5v-5v----3v--
G-----2-------2-0----2-----------2-------2-0---2-------3----5v-5v----3v--
D---2-------------0------------2-------------2---------------------------
A------------------------------------------------------------------------
E------------------------------------------------------------------------

     Dm
Esta tarde no pasa nada,

e--------5------5---5--
B-----6------6-----6---
G--7------7-------7----
D----------------------
A----------------------
E----------------------
     Am
no puedo olvidarme de ella,

e--------5-------5---5----
B-----5-------5-----5-----
G--5-------5-------5------
D-------------------------
A-------------------------
E-------------------------
       Dm
hace un mes que la estoy pensando

e--------5------5---5--
B-----6------6-----6---
G--7------7-------7----
D----------------------
A----------------------
E----------------------
      Am
y no se si de mi se acuerda
e--------5-------5---5----
B-----5-------5-----5-----
G--5-------5-------5------
D-------------------------
A-------------------------
E-------------------------

       Dm
mi futuro es algo incierto

e--------5------5---5--
B-----6------6-----6---
G--7------7-------7----
D----------------------
A----------------------
E----------------------

     Am
pero ese no es el problema,

e-------5-------5----5----
B-----5-------5-----5-----
G--5-------5-------5------
D-------------------------
A-------------------------
E-------------------------

      Dm
donde pongo mi sentimiento,

e--------5------5---5--
B-----6------6-----6---
G--7------7-------7----
D----------------------
A----------------------
E----------------------
         C               G
si esta noche hay luna llena.

e-----5----7----8-----10----12------------------------
B-----------------------------------------------------
G--/5---/7---/9---/10----12---------------------------
D-----------------------------------------------------
A-----------------------------------------------------
E-----------------------------------------------------

                   C    G                  Am
y aunque hoy no estaaaaaas     voy planificando

e----------0-------------
B----0h1-----1-----------
G--------------2---------
D--2---------------------
A------------------------
E------------------------

           C     G                   Am
una y otra veeeeeez        amores lejanos.

e----------0-------------
B----0h1-----1-----------
G--------------2---------
D--2---------------------
A------------------------
E------------------------

                   C   G                    Am
y aunque hoy no estaaaaas    te habro mis brazos

e-----5----7----8-----10h12p10----8---8---8-8------8--
B-----------------------------------------------------
G--/5---/7---/9---/12-----------9---9----------7h9----
D-----------------------------------------------------
A-----------------------------------------------------
E-----------------------------------------------------

            C    G                  Am
yo me quedareeeeee        aqui esperando

e--------
B-----1--
G---2----  Arpegio de A menor
D-2------
A--------
E--------

Solo de Viola:
e------------------------------------------------------------
B-----0-1-3---------3h5-3---8p5------------------------------
G---2-------2-0-----------------7p5--7-5-7-------------------
D-2-------------0---------------------------7p5--------------
A-----------------------------------------------7--7p5s3h5~--
E------------------------------------------------------------

e-------------------------------------------------------------
B-----5-8-5-6---5/-3-------3-----------------------------8----
G-5-7---------7------5-4-5---4s5s4-----5p4---------7-7h9---8--
D------------------------------------7------7-5-7-------------
A-------------------------------------------------------------
E-------------------------------------------------------------

e-7h8p7-------------------8-7---------------
B-------10-8--8h10--8-10------10-8----------
G----------------------------------7h9--7-9-
D-------------------------------------------
A-------------------------------------------
E-------------------------------------------

e---8-7------8---7p5---10--8h10p8----8h10p8--------------12----10----8----7--5p7~-----|
B-------10-8---------8------------10--------------------------------------------------|
G-----------------------------------------------------11----10----9-----7-------------|
D-------------------------------------------------------------------------------------|
A-------------------------------------------------------------------------------------|
E-------------------------------------------------------------------------------------|

                   C    G                Am
y aunque hoy no estaaaaaas,  voy planificando

e----------0-------------
B----0h1-----1-----------
G--------------2---------
D--2---------------------
A------------------------
E------------------------

            C    G               Am
una y otra veeeeeez     amores lejanos.

e----------0-------------
B----0h1-----1-----------
G--------------2---------
D--2---------------------
A------------------------
E------------------------
                   C   G                   Am
y aunque hoy no estaaaaas,  te habro mis brazos

e----7---5---3----7---5---3---------------
B-----------------------------------------
G--7---5---3----7---5---3-----------------
D-----------------------------------------
A-----------------------------------------
E-----------------------------------------
            C    G                  Am
yo me quedareeeeee        aqui esperando.

e---------0----------------------------------------------------
B---0h1-----1--------------------------------------------------
G-------2-----2------------------------------------------------
D-2-------------2----------------------------------------------
A--------------------------------------------------------------
E--------------------------------------------------------------

uoooh oh oh oh   uoooh oh oh oh   uoooh oh oh oh
e--------------------------------------------------------------
B-----------------------------8h10-10-10-10-10-10-8-10-10------
G-7h9--7s5------7h9--7s5---------------------------------------
D-----------7-------------7------------------------------------
A--------------------------------------------------------------
E--------------------------------------------------------------

uoooh oh oh oh     uoooh oh oh oh  uoooh oh oh oh  ieeeee....
e---------------------------------------------7s9-7h5----------
B--10-8-10-10--------10-10-8-8-8---------------------7---------
G------------------------------------7-5-7-5------------7s9----
D--------------------------------------------------------------
A--------------------------------------------------------------
E--------------------------------------------------------------

                      C    G                   Am
   y aunque hoy no estaaaaaas      voy planificando

e-----12----10---8---7---5----------
B-----------------------------------
G--12---10----9---7---5-------------
D-----------------------------------
A-----------------------------------
E-----------------------------------
            C    G                   Am
una y otra veeeeeez        amores lejanos.


e-----12----12-----10---8---8---8---7---5-----
B---------------------------------------------
G--12----12-----10----9---9---9---7---5-------
D---------------------------------------------
A---------------------------------------------
E---------------------------------------------

                   C   G                     Am
y aunque hoy no estaaaaas     te habro mis brazos

e--------------3-------------------- |
B--------0-1h3---3p1---1h3p1-------- |
G------2-------------2-------2-0---- |
D--2-2---------------------------3-- |Se toca medianamente rápido
A----------------------------------- |
E----------------------------------- |
            C    G                       Am
yo me quedareeeeee        aquiiii eeesperaaaando.


e-----12---12---10---8---7---5-----------
B----------------------------------------
G--11---11----10----9---7---5------------
D----------------------------------------
A----------------------------------------
E----------------------------------------

Fuente original ATAME [www.atame.org]
Colaborador original: Christian Ferrete [De la garma]

Fuente: tusacordes.com