a b c d e f g h i j k l m n o p q r s t u v w x y z 0-9

Amores Lejanos

Enanitos Verdes

Am
C
G
			
 INTRO: RIFF1,RIFF2,RIFF1,RIFF2  

Am
E-----------------------0------
B------0-1-3--------------1----
G----2-------2-0-----2------2--   RIFF1
D--2--------------0--2---------
A------------------------------
E------------------------------

     
Am
E-----------------------0------
B------0-1-3--------------1----
G----2-------2-0-----2------2--   RIFF2
D--2--------------2--2---------
A------------------------------
E------------------------------


1]
Am
Esta tarde no pasa nada 
C                      G 
las calles parecen desiertas 
Am
carmencita se fue de viaje 
C                      G 
y quizás nunca mas la vea 

1]
yo mirando por la ventana 
el asfalto brillando perlas 
los lugares que frecuentaba 
no me atraen ni me interesan 

ESTRIBILLO:

                C  G            Am
y aunque hoy no estas voy planificando 
      C   G             Am   
una y otra vez amores lejanos 
                C  G              Am
y aunque hoy no estas te abro mis brazos 
      C  G            Am
yo me quedare aquí esperando 

1]
Esta tarde no pasa nada 
no me puedo olvidar de ella 
hace un mes que la estoy pensando 
y no se si de mi se acuerda 
1]
mi futuro es algo incierto 
pero ese no es el problema 
donde pongo mis sentimientos 
si esta noche hay luna llena 

ESTRIBILLO:

y aunque hoy no estas voy planificando 
una y otra vez amores lejanos 
y aunque hoy no estas te abro mis brazos 
yo me quedare aquí esperando.


CUALQUIER DUDA ESCRIBIR A:arteofromance@hotmail.com+

ESTA CANCION SE LA DEDICO A DANIEL PICCOLO [BATERISTA DE LOS ENANITOS VERDES]
QUE SE ESTA POR SEPARAR Y A LA SOBRINA ANA QUE LA QUIERO MUCHO 

Fuente original ATAME [www.atame.org]
Colaborador original: Mauro Belluco [mauro10_ev@hotmail.com]

Fuente: tusacordes.com