a b c d e f g h i j k l m n o p q r s t u v w x y z 0-9

Amigos

Enanitos Verdes

			


No importa el lugar El sol es siempre igual  No importa si es recuerdo


e-|----------------|------------------------|-------------------
B-|--1-1--3-1--0---|------------------------|-------------------
G-|-0--------------|--0-2-0-2-0-------------|----------0--------
D-|----------------|-----------2------------|-2--3-3-3---2--0---
A-|----------------|------------------------|-------------------
e-|----------------|------------------------|-------------------


O es algo que vendrá  No importa cuanto hay  En tus bolsillos hoy

e-|-----------------|----------------------|--------------------
B-|-----------------|--1-1--3-1--0---------|--------------------
G-|----------0-0----|-0--------------------|--0-2-0-2-0---------
D-|-----0-0-0-------|----------------------|-------------2b-----A-|----3------------|----------------------|--------------------
E-|-----------------|----------------------|--------------------


Si nada hemos tenido Y nos iremos igual

e-|-----------------|------------------|
B-|-----------------|------------------|
G-|----------0------|-------------0-0--|
D-|---2-3-3-3--2-0--|---0-0-0----------|
A-|-----------------|--3---------------|
E-|-----------------|------------------|

Pero siempre estarán en Mí  Esos buenos momentos  Que pasamos sin saber

e-|-------0-------3--------|--------------------|---------------
B-|---1-3----3-1-3?3--1----|----1-1-1-1-1-1-----|---------------
G-|------------------------|--0------------2----|-2-0-2-0-0---0-
D-|------------------------|--------------------|-----------3---
A-|------------------------|--------------------|---------------
E-|------------------------|--------------------|---------------

No importa dónde estás  Si vienes o si vas  La vida es un camino
e-|--------------------|------------------|---------------------
B-|--1--1-3--1-0-------|------------------|---------------------
G-|-0------------------|---0-2-0-2--0-----|-----------0---------
D-|--------------------|--------------2---|---2--3-3-3--2-0-----
A-|--------------------|------------------|---------------------
E-|--------------------|------------------|---------------------

Un camino para andar Si hay algo que esconder O hay algo que decir
e-|-----------------|------------------------|------------------
B-|-----------------|------1--1-3--1-0-------|------------------
G-|----------0-0----|----0-------------------|----0-2-0-2-0-----
D-|----0-0-0--------|------------------------|--------------2---
A-|---3-------------|------------------------|------------------
E-|-----------------|------------------------|------------------


Siempre será un amigo  El primero en saber
e-|-------------------|-------------------|
B-|-------------------|-------------------|
G-|----------0--------|-----------0-0-----|
D-|---2-3-3-3--2-0----|-----0-0-0---------|
A-|-------------------|---3---------------|
E-|-------------------|-------------------|


Porque siempre estarán en Mí Esos bellos momentos  Que pasamos sin saber

e-|-------0-------3--------|--------------------|---------------
B-|---1-3----3-1-3?3?1b----|----1-1-1-1-1-1-----|---------------
G-|------------------------|--0------------2----|-2-0-2-0-0---0-
D-|------------------------|--------------------|-----------3---
A-|------------------------|--------------------|---------------
E-|------------------------|--------------------|---------------




Que un amigo es una luz Brillando en la oscuridad.Siempre serás mi amigo
e-|-0----------1-------|-0--------------0--------|--0--------1b-
B-|---3?1--0-----3-----|----3-1--0-1--3----------|---3-1-0------
G-|----------2---------|-------------------------|-0-------2----
D-|--------------------|-------------------------|--------------
A-|--------------------|-------------------------|--------------
E-|--------------------|-------------------------|--------------

No importa nada más...
e-|----0-0------------|
B-|--------3-1--------|
G-|-0-0---------------|
D-|-------------------|
A-|-------------------|
E-|-------------------|

Porque siempre estarán en Mí Esos bellos momentos  Que pasamos sin saber

e-|-------0-------3--------|--------------------|---------------
B-|---1-3----3-1-3?3?1b----|----1-1-1-1-1-1-----|---------------
G-|------------------------|--0------------2----|-2-0-2-0-0---0-
D-|------------------------|--------------------|-----------3---
A-|------------------------|--------------------|---------------
E-|------------------------|--------------------|---------------




Que un amigo es una luz Brillando en la oscuridad.Siempre serás mi amigo
e-|-0----------1-------|-0--------------0--------|--0--------1b-
B-|---3?1--0-----3-----|----3-1--0-1--3----------|---3-1-0------
G-|----------2---------|-------------------------|-0-------2----
D-|--------------------|-------------------------|--------------
A-|--------------------|-------------------------|--------------
E-|--------------------|-------------------------|--------------

No importa nada más...
e-|----0-0------------|
B-|--------3-1--------|
G-|-0-0---------------|
D-|-------------------|
A-|-------------------|
E-|-------------------|

Fuente: tusacordes.com