a b c d e f g h i j k m n o p q r s t x v w y z 0-9

Hotel California

Eagles

			
*********************************************************
* ANTES DE VER ESTO TIENEN QUE LEER X KE SI NO LO LEEN  *
* NO LE MAN A ENTENDER MUCHO                            *
*********************************************************

1----2----------------
2----3----------------       |esto es un ¨SIm¨                 |
3----4----------------       |si menor para los que no saben |
4----4----------------       | y ponen una segilla en el 2 con |
5----2----------------       | el indise y luego con los       |
6----2---------------        | otros 3 dedos ponen             |
_____________________________|                                 |
apensas empiesan tocan 3 veces y en la tercera golpean las     |
cuerdas 3, 4, 4seguramente ya saben pero es para los que       |
y luego otras 2 y luego 4                                      |
¯¯¯¯¯¯¯¯¯¯¯¯¯¯¯¯¯¯¯¯¯¯¯¯¯¯¯¯¯¯¯¯¯¯¯¯¯¯¯¯¯¯¯¯¯¯¯¯¯¯¯¯¯¯¯¯¯¯¯¯¯¯¯

          
        y luego cambian rapido 

1----2----------------       |esto es ¨FA#¨ y es parecido al SIm 
2----2----------------       | pero solamente suben un cuerda 
3----3----------------       | y se toca igual 3 y la tercera 
4----4----------------       | golpean y luego tocan 2 veces 
5----4----------------       | pausan y luego 4
6----2----------------       |


          cambian rapido


1------------0------------   |esto es ¨LA¨ pero distribuido para
2-------2---------2-------   | los qu no sabes como es la es
3------2-2-------2-2------   | en la 2, 3, y 4 cuerda contando
4---2-------2---2---------   | 1 la mas delgada y 6 la mas 
5-------------------------   | gruesa en el 2 traste, pero los que
6-------------------------   | no saben ni se confundan



         cambian rapido


1-------------0-----------   |esto biene siendo ¨MI¨pero 
2-------1----------1------   | igualmente distribuido esto 
3------2-2--------2-2-----   | es igual que ¨LA¨pero en 
4----------------2--------   | la 2°da  cuerda en vez de 
5-------------------------   | tener en el 2°do  traste lo 
6---0--------0------------   | tiene en el 1°ro


         cambia rapido


1------------3------------   |esto es ¨SOL¨ pero igualmente 
2-------0---------0-------   |distribuido ¨sol¨ es: en la 1°ra  
3------0-0-------0-0------   | cuerda pisas el 3°er  traste en 
4---0-------0---0---------   | la 5°ta  cuerda el 2°do  traste y 
5-------------------------   | en la  6°ta cuerda el 3°er  traste
6-------------------------   |

         
        cambia rapdio


1------------2------------   |esto es ¨RE¨ pero ya saben 
2-------3----------3------   | distribuido ¨RE¨ es: en la 1°ra  
3------2-2--------2-2-----   | cuerda pisas el 2°do  traste en 
4---0-------0----0--------   | la 2°da cuerda pisas el 3°er  
5-------------------------   | traste y en la 3°ra  cuerda pisas 
6-------------------------   | el 2°do  traste


       cambia rapido


1------------0-----------    |esto es ¨MIm¨ pero distribuido
2-------0---------0------    |¨MIm¨ es: en la 4°ta y 5°ta
3------0-0-------0-0-----    |cuerda pisando el 2°do traste
4---2-------2---2--------    |
5------------------------    |
6------------------------    |


       cambia rapido


1------------2-----------    |esto es ¨FA#¨ pero ya saben |
2-------2---------2------    |distribuido                 |
3------3-3-------3-3-----    |¨FA#¨ es: con una segilla   |
4---4-------4---4--------    |en el 2°do traste y en la   |
5------------------------    |3°ra  cuerda en el 3° traste| 
6------------------------    |y la 4°ta  y 5°ta  en el    | 
_____________________________|                            |
4°to  traste                                              |
¯¯¯¯¯¯¯¯¯¯¯¯¯¯¯¯¯¯¯¯¯¯¯¯¯¯¯¯¯¯¯¯¯¯¯¯¯¯¯¯¯¯¯¯¯¯¯¯¯¯¯¯¯¯¯¯¯¯



************************************************************
*y luego cambian como EN ¨SIm¨ y ¨FA#¨ tocan 1 ves pausan y*
*luego 2 veces y en la 2°da golpean, luego tocan dos veces *
*pausan y luego 4 veces ((perdonen asi era me equivoque    *
*aya arriba))                                              *
************************************************************

          SIm
1----2----------------
2----3----------------   
3----4----------------     
4----4----------------      
5----2----------------      
6----2----------------


        FA#
1----2----------------      
2----2----------------     
3----3----------------      
4----4----------------     
5----4----------------   
6----2----------------  

   
        LA
1----0-----------------
2----2-----------------
3----2-----------------
4----2-----------------
5----0-----------------
6----0-----------------



        MI
1----0-----------------
2----1-----------------
3----2-----------------
4----2-----------------
5----0-----------------
6----0-----------------



       SOL
1----3-----------------
2----0-----------------
3----0-----------------
4----0-----------------
5----1-----------------
6----3-----------------



      RE
1----2-----------------
2----3-----------------
3----2-----------------
4----0-----------------
5----0-----------------
6----0-----------------



       MIm
1----0-----------------
2----0-----------------
3----0-----------------
4----2-----------------
5----2-----------------
6----0-----------------



        FA#
1----2----------------      
2----2----------------     
3----3----------------      
4----4----------------     
5----4----------------   
6----2---------------- 


ECHO
 X
Jâ§C   Cd. Obregon Son. Mexico<p>Fuente: tusacordes.com</p>