a b c d e f g h i j k l m n o p q r s t u v w x y z 0-9

Caprichosa Eres Tu

Dragon Ball Gt

			
Caprichosa eres tu   
muchas veces? lo sé. No te importan los demás    Porque te comportas así 
                Tu quieres todo hacer a tu manera,
E|-----------------|---------------------|-------------------|
B|-------2-------2-|-----2-2-3-----2-2-3-|---2---------2-----|
G|-----4-------4---|---4---------4-------|-4---4-2-2-4---4---|
D|-2-2-----2-2-----|-4---------4---------|-------------------|
A|-----------------|---------------------|-------------------|
E|-----------------|---------------------|-------------------|


Es solo una ilusión  En el pasado que se fue            Y te hacen llorar,  
Que quieres tu vivir.La gente te daña, no lo comprendes. angustiada estas
E|-----------------|---------------------|---------------0---|
B|-------2-------2-|-----2-2-3-----2-2-3-|-3---2-------3---3-|
G|-----4-------4---|---4---------4-------|---4---4-2-2-------|
D|-2-2-----2-2-----|-4---------4---------|-------------------|
A|-----------------|---------------------|-------------------|
E|-----------------|---------------------|-------------------|




Con las personas nunca  Pero sola nunca    Porque yo estaré . 
       te entiendes           estarás            ahí
E|------0-0-0-0---2-0-|------0-0-0-0---2-0-|-------------0-|
B|----2---------2-----|----2---------2-----|-3-3-3-2-2-3---|
G|2-4-----------------|2-4-----------------|---------------|
D|--------------------|--------------------|---------------|
A|--------------------|--------------------|---------------|
E|--------------------|--------------------|---------------|



Ya veras, aunque mil   Cuando de noche llegues a tu casa Y el alma sientas herida
 tormentas vendrán. 
E|---0-3----2-0-2-2-|---------------------|------------------------|
B|-2----------------|-------2-2-2-2-------|------2-------2-3-3-3-3-|
G|-------2----------|---2-4---------2-4-2-|----2---4-2-4-----------|
D|------------------|-4-------------------|4-4---------------------|
A|------------------|---------------------|------------------------|
E|------------------|---------------------|------------------------|




Cuenta conmigo amor, porque tu 
y yo uno solo seremos los dos. Muchas cosas juntos vamos hace  
E|------0---0-3---2-0-2-2-|-----------1-------|
B|--2-3---2-----2---------|-------2-2---2-----|
G|------------------------|---2-4---------4-2-|
D|------------------------|-4-----------------|
A|------------------------|-------------------|
E|------------------------|-------------------|




El valor va ha 
defenderte      Mientras vivas aquí
E|--------------|---0---0-------|
B|----2---------|-3---2---------|
G|--2---4-2-2-4-|---------4-2-2-|
D|4-------------|---------------|
A|--------------|---------------|
E|--------------|---------------|Fuente: Tus acordes