a b c d e f g h i j k l m n o p q r s t u v w x y z 0-9

La Ñapi De Mama

Divididos

			
Intro
G|--------------------------------------|
D|-----9-7-------7------5-3-------4-----|
A|--9-7---9---7-5----5-3---5---4-2---/7-|
E|-7---------5------3---------2---------|

Pre-Verso
G|-9-7---------|
D|----9-7-6----|
A|---------9-8-|
E|-------------|

Verso 1
G|------------------------------------------------------|-------|
D|------------------------------------------------------|-------|
A|-77777777--------55555555--------77-9-8-77-9-8-77-9-8-|-4-5-6-|
E|---------33333333--------55555555---------------------|-------|
 |             DOS             Veces                    |
   
 |-----------------------------------------------------------------------------------|-------------------|x2
 |----6-6-7----6-7-9----------------------------------44-55-77-----------------------|-------------------|
 |-777-7---7777--------2-2-3----22-3-5--555-7-5-7-6-55----------------------44-55-66-|-77-66-5-6h4-7-5-4-|
 |------------------333-3---3-55------------------------------555-7-5-7-6-55---------|-------------------|
										     |   CUATRO   Veces  |
Coro
G|-----------------------------------|x2
D|-----9-7-------7------5-3-------4--|
A|--9-7---9---7-5----5-3---5---4-2---|
E|-7---------5------3---------2------|

Verso 2 Hubo un tiempo...
G|---------------------------------------------------------------------------|x2
D|---------------------------------------------------------------------------|
A|-777777777777-555555555555-44444444444-222222-0-77-9-8-77-9-8-77-9-8-4-5-6-|
E|---------------------------------------------------------------------------|

 |--9--9----7--7----6--6----4--4-------------------------------|x2 ( la 2°, sin la parte
 |-------------------------------------------------------------|      de: -77-9-8- )
 |-7--7--7/5--5--5/4--4--4/2--2--0--77-9-8-77-9-8-77-9-8-4-5-6-|
 |-------------------------------------------------------------|

Intro
G|--------------------------------------|
D|-----9-7-------7------5-3-------4-----|
A|--9-7---9---7-5----5-3---5---4-2---/7-|
E|-7---------5------3---------2---------|

Pre-Verso
G|-9-7---------|
D|----9-7-6----|
A|---------9-8-|
E|-------------|

Verso 1
G|------------------------------------------------------|-------|
D|------------------------------------------------------|-------|
A|-77777777--------55555555--------77-9-8-77-9-8-77-9-8-|-4-5-6-|
E|---------33333333--------55555555---------------------|-------|
 |             DOS             Veces                    |
   
 |-----------------------------------------------------------------------------------|-------------------|x2
 |----6-6-7----6-7-9----------------------------------44-55-77-----------------------|-------------------|
 |-777-7---7777--------2-2-3----22-3-5--555-7-5-7-6-55----------------------44-55-66-|-77-66-5-6h4-7-5-4-|
 |------------------333-3---3-55------------------------------555-7-5-7-6-55---------|-------------------|
										     |   CUATRO   Veces  |
Coro
G|-----------------------------------|x2
D|-----9-7-------7------5-3-------4--|
A|--9-7---9---7-5----5-3---5---4-2---|
E|-7---------5------3---------2------|

Verso 2 Hubo un tiempo...
G|---------------------------------------------------------------------------|x2
D|---------------------------------------------------------------------------|
A|-777777777777-555555555555-44444444444-222222-0-77-9-8-77-9-8-77-9-8-4-5-6-|
E|---------------------------------------------------------------------------|

 |--9--9----7--7----6--6----4--4-------------------------------|x2 ( la 2°, sin la parte
 |-------------------------------------------------------------|      de: -77-9-8- )
 |-7--7--7/5--5--5/4--4--4/2--2--0--77-9-8-77-9-8-77-9-8-4-5-6-|
 |-------------------------------------------------------------|

Coro
G|-----------------------------------|x4
D|-----9-7-------7------5-3-------4--|
A|--9-7---9---7-5----5-3---5---4-2---|
E|-7---------5------3---------2------|

Escuchá la canción para saber el ritmo

Fuente original ATAME [www.atame.org]
Colaborador original: Sebastián Vidondo [rojoamargodelsiglo@yahoo.com.ar]

Fuente: tusacordes.com