a b c d e f g h i j k m n o p q r s t x v w y z 0-9

Color Esperanza

Diego Torres

			
MODIFICACION A LA TRANSCRIPCION DE
laura lombarda00@mail.com
**********************************************************************

esta tabladura es mejor que la otra hubo algunos errores espero q la disfruten
  Se que hay en tus ojos...
1 -----------0-0----------------------------
2 --3--0--3-------3--1--0-------------------
3 -------------------------2--0-------------
4 ------------------------------------------
5-------------------------------------------
6-------------------------------------------
    Que estas cansado...
1 -----------------------0------------------
2 ------------0-0-0---3-----3---------------
3 --0--0--2--------------------0------------
4 ------------------------------------------
5-------------------------------------------
6-------------------------------------------

    Y caminar      girando siempre...
1 ------------------------------------------
2 -------------------------0--1--0----------
3 -----0--2--0--------0--2----------0--2----
4 --2---------------2-----------------------
5 ------------------------------------------
6 ------------------------------------------

se repite 1 vez mas y engancha con el estribillo

   Saber que...        querer que..
1 ------------------------------------------
2 --0-0--------0-------0-0--1-0-------------
3 -------2--0--------------------2-0--------
4 ---------------0-------------------------
5-------------------------------------------
6-------------------------------------------

   quitarse...        sacarlos afuera...
1 ------------------------------------------
2 --1-1--0---1--------1-1--0----------------
3 ---------2---0-------------2-0------------
4 ---------------------------------4--------
5 ------------------------------------------
6 ------------------------------------------

   pintarse...         color esperanza
1 ------0-----------------------------------
2 -3-3----3-3--0-------3-1--0---------------
3 -----------------------------2-2--0-------
4 ------------------------------------------
5-------------------------------------------
6-------------------------------------------

  entrar al futuro        con el corazon
1 ------------------------------------------
2 ---------0-----------------1-0------------
3 -0-0--2----0--------------------0-2-------
4 -------------0----------0-----------------
5-------------------------------------------
6-------------------------------------------

Es mejor perderse que nunca embarcar
Mejor tentarse a dejar de intentar
Aquella vez que no es tan facil empezar

Se que lo imposible se puede lograr
que la tristeza algun dia se ira
y asi sera, la vida cambia y cambiara

   sentiras...              por cantar...
1 ------------0-----------------------------
2 --0-----------0--3--0------0--------0-1---
3 ----2-0---0----------------2-0-2-------2--
4 ------------------------------------------
5-------------------------------------------
6-------------------------------------------

ESTRIBILLO X2

Fuente original ATAME [www.atame.org]<br>Colaborador original: gustavo andrés
[blando25@hotmail.com]<p>Fuente: tusacordes.com</p>