a b c d e f g h i j k l m n o p q r s t u v w x y z 0-9

Te Alabare Mi Buen Jesus

Danilo Montero

			
*SLIDE

intro:
G:-----------------------------------------------------|
D:-------------2---------------------------------2---2-|
A:-----------2---2---2---2---2-4---4---4---0---0---0---|
E:-*1/12/1-0-------0---2---2-----4---4-----------------|

G:-----------------------------------------------------|
D:-----2-----------------------------------------------|
A:---2---2---2---2-2---0-0---0-0---0-0---0-2-----------|
E:-0-------0---2-----2-----0-----0-----0---------------|


verso:
eres tu la unica...
G:-----------------------------------------------------|
D:-----2-----------------------------------------------|
A:---2---2---2---2-2---4---4-4----4---4----------------|
E:-0-------0---2-----2---4-----4-0--0---0--------------|


eres tu la esperanza...
G:-----------------------------------------------------|
D:-----2-----------------------------------------------|
A:---2---2---2---2-2---4---4-4----4---4----------------|
E:-0-------0---2-----2---4-----4-0--0---0--------------|


confio en ti...
G:-----------------------------------------------------|
D:-----------------------------------------------------|
A:-----------0-2-2-2-----------0-2-2-2-----------------|
E:-2-2-0-2-2---------2-2-0-2-2-------------------------|


hoy hay gozo...
G:-----------------------------------------------------|
D:-----2-----------------------------------------------|
A:---2---2---2---2-2---0-0-0-0-0-2-2-------------------|
E:-0-------0---2-----0---------------------------------|


CORO
2 veces
te alabare, te...
G:-----------------------------------------------------|
D:-----4---------------------------4---4---------------|
A:---4---4---4---4-4---6---6-6---2---2---2-------------|
E:-2-------2---4-----4---6-----6-----------------------|


te alabare, mi buen...
G:-----------------------------------------------------|
D:-----4-----------------------------------------------|
A:---4---4---4---4-4---2-2---2-2---2-2---2-4-----------|
E:-2-------2---4-----4-----2-----2-----2---------------|



SOLO
G:-----------------------------------------------------|
D:-----------------------------------------------------|
A:---------------4-2-----------------4-2---------------|
E:-0-2-4-5-4-2-0-------0-2-4-5-4-2-4-------------------|


en todo tiempo...
G:-----------------------------------------------------|
D:-----------------------------------------------------|
A:---------------4-2-----------------4-2---------------|
E:-0-2-4-5-4-2-0-------0-2-4-5-4-2-4-------------------|


allí el coro cabmia de tono a sol
te alabare
G:-----------------------------------------------------|
D:-----5---------------------------5---5---------------|
A:---5---5---5---5-5---7---7-7---3---3---3-------------|
E:-3-------3---5-----5---7-----7-----------------------|


G:-----------------------------------------------------|
D:-----5-----------------------------------------------|
A:---5---5---5---5-5---3-3---3-3---3-3---3-5-----------|
E:-3-------3---5-----5-----3-----3-----3---------------|

si tienes preguntas o comentarios escribeme a mi e-mail
                                          que Dios les bendiga
                                                     que viva el Ecuador!!!!!
                                                                          suerte!

Fuente original ATAME [www.atame.org]
Colaborador original: Jaime Orellama [cyberdavid59@hotmail.com]

Fuente: tusacordes.com