a b c d e f g h i j k l m n o p q r s t u v w x y z 0-9

Punteo De Cueca

Cuecas Chilenas

			
e)----1-3-3--5-5-7-7-5-6-7-7-5-5-3-3--------/
 b)-1--3-5-5--6-6-8-8-6-7-8-8-6-6-5-5--------/
 g)------------------------------------------/
 d)------------------------------------------/
 a)------------------------------------------/
 e)------------------------------------------/







 e)----1-3-3--5-5--7-7----7------5------3------1-------/
 b)-1--3-5-5--6-6--8-8--8---8--6---6--5---5--3---3-1---/
 g)----------------------------------------------------/
 d)----------------------------------------------------/
 a)----------------------------------------------------/
 e)----------------------------------------------------/Fuente: Tus acordes