a b c d e f g h i j k l m n o p q r s t u v w x y z 0-9

Eres Mi Amigo Fiel

Coalo Zamorano

E
			
Hola a todos saludos desde El Salvador a todos,
aqui estan las figuras de esta rola que esta excelente

Están un 95 exactas...

Intro.
1a. Parte:
        E             B             F#               E
E-0-0--0-0--0-0-----------------2-2--2-2--2-2--0-0--0-0--0-0--|
A----------------2-2--2-2--2-2--------------------------------|
D-------------------------------------------------------------|
G-------------------------------------------------------------|
Luego va un pequeño adorno que va asi:
E--------------|
A--------------|
D-9/11------9--|
G-------9------|
2a. Parte:
       E              B              F#               E
E-0-0--0-0--0-0-----------------2-2--2-2--2-2-----------------|
A----------------2-2--2-2--2-2-----------------5-5--5-5--5-5--|
D-------------------------------------------------------------|
G-------------------------------------------------------------|

I Estrofa:

    E               C#
  Quien soy...    pienses                          y que
E--0----------------------------------------------------|
A-----------12/7----4-------------------4---------------|
D----------------------6-------------6-----6------------|
G-------------------------6--6/8--6-----------6--6/8-9--|

  F#
Escuches                               mi clamor
E---------------------------------------------------|
A--9-----------------------9------------------------|
D-----11---------------11-----11----------------11--|
G--------11--11/13--11-----------11--11/13--11------|
     E                                      E                         D#
                                        Si es verdad lo que tu hoy me dic
E--------------------------------------|---------------------------------|
A-7------------------------------------|-7---------------7---------7--6--|
D----9----------------------11--9----9-|----9---------------9------------|
G-------9/11--9--11/13--11---------9---|-------9/11--13---------9--------|

    C#
                      Que me amas
E--------------------------------------|
A--4-------------------4---------------|
D-----6------------------6-------------|
G--------6--6/8--9-----------6--6/8-6--|

     D
Me asombras
E-------------------------------|
A-5-5-5------------------5--5---|
D---------------7-7-5-5---------|
G-------7-7-5-5-----------------|

Se repite todo con esta modificacion en "Pienses"
Pienses
E--------------------------------------|
A--4-------------------4---------------|
D-----6------------------6-------------|
G--------6--6/8--9-----------6--6/8-6--|
Luego todo va igual

Coro
       E                    C#                  F#                     E
Eres mi amigo fiel, eres mi amigo fiel, eres mi amigo fiel, tu amigo soy
E-0-0-0-0-0-0-0-0-----------------------2-2-2-2-2-2-2-2-2-2-2-2-------0--|
A-------------------4-4-4-4-4-4-4-4-4------------------------------------|
D------------------------------------------------------------------------|
G------------------------------------------------------------------------|
x2 veces

Estrofa 2: solo una vez
Igual que la primera, solo con una modificación en "Me Asombras"


Si tienes de 5 cuerdas
           D                                 D
       Me asombras                       me asombras
B-------------------------------|--3-3-3----------------------|
E-------------------------------|-------------------5-5--3-3--|
A-5-5-5------------------5--5---|---------5-5--3-3------------|
D---------------7-7-5-5---------|-----------------------------|
G-------7-7-5-5-----------------|-----------------------------|


Si tienes de 4 cuerdas
           D                                 D
       Me asombras                       me asombras
E-------------------------------|------------------5-5--3-3--|
A-5-5-5------------------5--5---|--5-5-5--5-5--3-3-----------|
D---------------7-7-5-5---------|----------------------------|
G-------7-7-5-5-----------------|----------------------------|

3a vez de "me asombras"
Recuerda que son 6 toques
Me asombras
     D  F# B  E  B  D
   E----2-----0--------|
   A-5-----2-----2--5--|
   D-------------------|
   G-------------------|

Coro
la segunda vez del coro en vez del E E final va A y es
con lo que empieza el solo.

Solo de guitarra.
      A              G#       F#        E
E--5-5-5-5---------4-4-4-4--2-2-2-2--0-0-0-0--|
A----------7/9--------------------------------|
D---------------9-----------------------------|
G---------------------------------------------|

 A                       G#       F#      A
Majestuoso           y Poderoso tu amigo soy
E--------------------------------------------|
A-12-12-----------------11-11---9-9-9-----12-|
D--------14/16-----16------------------------|
G---------------14---------------------------|
Luego juegas en las quintas y octavas.

Termina en:
 A                       G#       F#      B
Majestuoso           y Poderoso tu amigo soy
E-------------------------------------------------------|
A-12-12-----------------11-11---9-9-9------2-2-2-2-2-2--|
D--------14/16-----16-----------------------------------|
G---------------14--------------------------------------|

Coro

Final

tu amigo soy, tu amigo soy, Tu amigo soy, tu amigo soy
E------5-5-5-5-5-5-5-5--4-4-4-4-4-4-4--2-2-2-2-2-2--0--|
A------------------------------------------------------|
D------------------------------------------------------|
G------------------------------------------------------|

Bueno espero que les sirva y cualquier duda o comentario al mail ;-)
Y si es un poco complicado entenderlas visiten mi video en
http://www.youtube.com/watch?v=bMseP43WHcA

                        B E N D I C I O N E SFuente: Tus acordes